  0
SECTION
  2
HEADER
  9
$MEASUREMENT
  70
  1
  9
$INSUNITS
  70
  4
  0
ENDSEC
  0
SECTION
  2
TABLES
  0
TABLE
  2
LTYPE
 70
     1
  0
LTYPE
  2
CONTINUOUS
 70
    64
  3
Ausgezogene Linie
 72
    65
 73
     0
 40
0.0
  0
ENDTAB
  0
TABLE
  2
LAYER
 70
     3
  0
LAYER
  2
Kontur
 70
    64
 62
     7
  6
CONTINUOUS
  0
LAYER
  2
Gravur
 70
    64
 62
     7
  6
CONTINUOUS
  0
LAYER
  2
Bezugspunkte
 70
    64
 62
     1
  6
CONTINUOUS
  0
ENDTAB
  0
TABLE
  2
STYLE
 70
     1
  0
STYLE
  2
TXT
 70
    64
 40
0.0
 41
1.0
 50
0.0
 71
     0
 42
3.500000
  3
TXT
  0
ENDTAB
  0
ENDSEC
  0
SECTION
  2
BLOCKS
  0
ENDSEC
  0
SECTION
  2
ENTITIES
  0
LINE
  8
Kontur
 62
   7
 39
0.100
  6
CONTINUOUS
 10
173.00000
 20
221.86900
 30
 0
 11
3.00000
 21
221.86900
  0
ARC
  8
Kontur
 62
   7
 39
0.100
  6
CONTINUOUS
 10
3.00000
 20
218.86900
 30
 0
 40
3.00000
 50
90.00000
 51
180.00000
  0
LINE
  8
Kontur
 62
   7
 39
0.100
  6
CONTINUOUS
 10
0.00000
 20
218.86900
 30
 0
 11
0.00000
 21
3.00000
  0
ARC
  8
Kontur
 62
   7
 39
0.100
  6
CONTINUOUS
 10
3.00000
 20
3.00000
 30
 0
 40
3.00000
 50
180.00000
 51
270.00000
  0
LINE
  8
Kontur
 62
   7
 39
0.100
  6
CONTINUOUS
 10
3.00000
 20
0.00000
 30
 0
 11
173.00000
 21
0.00000
  0
ARC
  8
Kontur
 62
   7
 39
0.100
  6
CONTINUOUS
 10
173.00000
 20
3.00000
 30
 0
 40
3.00000
 50
-90.00000
 51
0.00000
  0
LINE
  8
Kontur
 62
   7
 39
0.100
  6
CONTINUOUS
 10
176.00000
 20
3.00000
 30
 0
 11
176.00000
 21
218.86900
  0
ARC
  8
Kontur
 62
   7
 39
0.100
  6
CONTINUOUS
 10
173.00000
 20
218.86900
 30
 0
 40
3.00000
 50
0.00000
 51
90.00000
  0
LINE
  8
Gravur
 62
   254
 39
0.600
  6
CONTINUOUS
 10
63.00000
 20
205.48500
 30
 0
 11
63.00000
 21
197.92500
  0
LINE
  8
Gravur
 62
   254
 39
0.400
  6
CONTINUOUS
 10
55.98500
 20
212.36500
 30
 0
 11
54.88100
 21
212.36500
  0
LINE
  8
Gravur
 62
   254
 39
0.400
  6
CONTINUOUS
 10
54.88100
 20
212.36500
 30
 0
 11
54.88100
 21
209.60500
  0
LINE
  8
Gravur
 62
   254
 39
0.400
  6
CONTINUOUS
 10
54.88100
 20
209.60500
 30
 0
 11
54.88100
 21
210.98500
  0
LINE
  8
Gravur
 62
   254
 39
0.400
  6
CONTINUOUS
 10
54.88100
 20
210.98500
 30
 0
 11
55.57100
 21
210.98500
  0
LINE
  8
Gravur
 62
   254
 39
0.400
  6
CONTINUOUS
 10
56.76700
 20
212.36500
 30
 0
 11
56.76700
 21
209.60500
  0
LINE
  8
Gravur
 62
   254
 39
0.400
  6
CONTINUOUS
 10
57.54900
 20
209.60500
 30
 0
 11
57.54900
 21
212.36500
  0
LINE
  8
Gravur
 62
   254
 39
0.400
  6
CONTINUOUS
 10
57.54900
 20
212.36500
 30
 0
 11
58.79100
 21
209.60500
  0
LINE
  8
Gravur
 62
   254
 39
0.400
  6
CONTINUOUS
 10
58.79100
 20
209.60500
 30
 0
 11
58.79100
 21
212.36500
  0
LINE
  8
Gravur
 62
   254
 39
0.400
  6
CONTINUOUS
 10
60.81500
 20
212.36500
 30
 0
 11
59.57300
 21
212.36500
  0
LINE
  8
Gravur
 62
   254
 39
0.400
  6
CONTINUOUS
 10
59.57300
 20
212.36500
 30
 0
 11
59.57300
 21
209.60500
  0
LINE
  8
Gravur
 62
   254
 39
0.400
  6
CONTINUOUS
 10
59.57300
 20
209.60500
 30
 0
 11
60.81500
 21
209.60500
  0
LINE
  8
Gravur
 62
   254
 39
0.400
  6
CONTINUOUS
 10
59.57300
 20
210.98500
 30
 0
 11
60.60800
 21
210.98500
  0
LINE
  8
Gravur
 62
   254
 39
0.400
  6
CONTINUOUS
 10
63.80500
 20
212.36500
 30
 0
 11
65.04700
 21
212.36500
  0
LINE
  8
Gravur
 62
   254
 39
0.400
  6
CONTINUOUS
 10
65.04700
 20
212.36500
 30
 0
 11
64.42600
 21
212.36500
  0
LINE
  8
Gravur
 62
   254
 39
0.400
  6
CONTINUOUS
 10
64.42600
 20
212.36500
 30
 0
 11
64.42600
 21
209.60500
  0
LINE
  8
Gravur
 62
   254
 39
0.400
  6
CONTINUOUS
 10
65.82900
 20
212.36500
 30
 0
 11
65.82900
 21
210.22600
  0
ARC
  8
Gravur
 62
   254
 39
0.400
  6
CONTINUOUS
 10
66.45000
 20
210.22600
 30
 0
 40
0.62100
 50
180.00000
 51
360.00000
  0
LINE
  8
Gravur
 62
   254
 39
0.400
  6
CONTINUOUS
 10
67.07100
 20
210.22600
 30
 0
 11
67.07100
 21
212.36500
  0
LINE
  8
Gravur
 62
   254
 39
0.400
  6
CONTINUOUS
 10
67.85300
 20
209.60500
 30
 0
 11
67.85300
 21
212.36500
  0
LINE
  8
Gravur
 62
   254
 39
0.400
  6
CONTINUOUS
 10
67.85300
 20
212.36500
 30
 0
 11
69.09500
 21
209.60500
  0
LINE
  8
Gravur
 62
   254
 39
0.400
  6
CONTINUOUS
 10
69.09500
 20
209.60500
 30
 0
 11
69.09500
 21
212.36500
  0
LINE
  8
Gravur
 62
   254
 39
0.400
  6
CONTINUOUS
 10
71.11900
 20
212.36500
 30
 0
 11
69.87700
 21
212.36500
  0
LINE
  8
Gravur
 62
   254
 39
0.400
  6
CONTINUOUS
 10
69.87700
 20
212.36500
 30
 0
 11
69.87700
 21
209.60500
  0
LINE
  8
Gravur
 62
   254
 39
0.400
  6
CONTINUOUS
 10
69.87700
 20
209.60500
 30
 0
 11
71.11900
 21
209.60500
  0
LINE
  8
Gravur
 62
   254
 39
0.400
  6
CONTINUOUS
 10
69.87700
 20
210.98500
 30
 0
 11
70.91200
 21
210.98500
  0
LINE
  8
Gravur
 62
   254
 39
0.600
  6
CONTINUOUS
 10
22.00000
 20
208.00000
 30
 0
 11
22.00000
 21
196.00000
  0
ARC
  8
Gravur
 62
   254
 39
0.400
  6
CONTINUOUS
 10
11.48900
 20
211.76700
 30
 0
 40
0.59800
 50
0.00000
 51
180.00000
  0
LINE
  8
Gravur
 62
   254
 39
0.400
  6
CONTINUOUS
 10
10.89100
 20
211.76700
 30
 0
 11
10.89100
 21
210.20300
  0
ARC
  8
Gravur
 62
   254
 39
0.400
  6
CONTINUOUS
 10
11.48900
 20
210.20300
 30
 0
 40
0.59800
 50
180.00000
 51
360.00000
  0
ARC
  8
Gravur
 62
   254
 39
0.400
  6
CONTINUOUS
 10
13.49000
 20
210.22600
 30
 0
 40
0.62100
 50
180.00000
 51
360.00000
  0
LINE
  8
Gravur
 62
   254
 39
0.400
  6
CONTINUOUS
 10
14.11100
 20
210.22600
 30
 0
 11
14.11100
 21
211.74400
  0
ARC
  8
Gravur
 62
   254
 39
0.400
  6
CONTINUOUS
 10
13.49000
 20
211.74400
 30
 0
 40
0.62100
 50
0.00000
 51
180.00000
  0
LINE
  8
Gravur
 62
   254
 39
0.400
  6
CONTINUOUS
 10
12.86900
 20
211.74400
 30
 0
 11
12.86900
 21
210.22600
  0
LINE
  8
Gravur
 62
   254
 39
0.400
  6
CONTINUOUS
 10
14.89300
 20
209.60500
 30
 0
 11
15.72100
 21
212.36500
  0
LINE
  8
Gravur
 62
   254
 39
0.400
  6
CONTINUOUS
 10
15.72100
 20
212.36500
 30
 0
 11
16.54900
 21
209.60500
  0
LINE
  8
Gravur
 62
   254
 39
0.400
  6
CONTINUOUS
 10
15.16900
 20
210.43300
 30
 0
 11
16.27300
 21
210.43300
  0
LINE
  8
Gravur
 62
   254
 39
0.400
  6
CONTINUOUS
 10
17.30800
 20
209.60500
 30
 0
 11
17.30800
 21
212.36500
  0
LINE
  8
Gravur
 62
   254
 39
0.400
  6
CONTINUOUS
 10
17.30800
 20
212.36500
 30
 0
 11
17.92900
 21
212.36500
  0
ARC
  8
Gravur
 62
   254
 39
0.400
  6
CONTINUOUS
 10
17.92900
 20
211.67500
 30
 0
 40
0.69000
 50
270.00000
 51
90.00000
  0
LINE
  8
Gravur
 62
   254
 39
0.400
  6
CONTINUOUS
 10
17.92900
 20
210.98500
 30
 0
 11
17.30800
 21
210.98500
  0
LINE
  8
Gravur
 62
   254
 39
0.400
  6
CONTINUOUS
 10
17.30800
 20
210.98500
 30
 0
 11
17.92900
 21
210.98500
  0
LINE
  8
Gravur
 62
   254
 39
0.400
  6
CONTINUOUS
 10
17.92900
 20
210.98500
 30
 0
 11
18.61900
 21
209.60500
  0
ARC
  8
Gravur
 62
   254
 39
0.400
  6
CONTINUOUS
 10
20.09100
 20
210.29500
 30
 0
 40
0.69000
 50
180.00000
 51
360.00000
  0
ARC
  8
Gravur
 62
   254
 39
0.400
  6
CONTINUOUS
 10
20.09500
 20
210.29900
 30
 0
 40
0.68600
 50
-0.33408
 51
90.33408
  0
ARC
  8
Gravur
 62
   254
 39
0.400
  6
CONTINUOUS
 10
20.09100
 20
211.67500
 30
 0
 40
0.69000
 50
90.00000
 51
-90.00000
  0
ARC
  8
Gravur
 62
   254
 39
0.400
  6
CONTINUOUS
 10
20.09500
 20
211.67900
 30
 0
 40
0.68600
 50
359.66592
 51
90.33408
  0
LINE
  8
Gravur
 62
   254
 39
0.400
  6
CONTINUOUS
 10
22.80500
 20
212.36500
 30
 0
 11
21.56300
 21
212.36500
  0
LINE
  8
Gravur
 62
   254
 39
0.400
  6
CONTINUOUS
 10
21.56300
 20
212.36500
 30
 0
 11
21.56300
 21
209.60500
  0
LINE
  8
Gravur
 62
   254
 39
0.400
  6
CONTINUOUS
 10
21.56300
 20
209.60500
 30
 0
 11
22.80500
 21
209.60500
  0
LINE
  8
Gravur
 62
   254
 39
0.400
  6
CONTINUOUS
 10
21.56300
 20
210.98500
 30
 0
 11
22.59800
 21
210.98500
  0
LINE
  8
Gravur
 62
   254
 39
0.400
  6
CONTINUOUS
 10
25.79500
 20
212.36500
 30
 0
 11
27.03700
 21
212.36500
  0
LINE
  8
Gravur
 62
   254
 39
0.400
  6
CONTINUOUS
 10
27.03700
 20
212.36500
 30
 0
 11
26.41600
 21
212.36500
  0
LINE
  8
Gravur
 62
   254
 39
0.400
  6
CONTINUOUS
 10
26.41600
 20
212.36500
 30
 0
 11
26.41600
 21
209.60500
  0
LINE
  8
Gravur
 62
   254
 39
0.400
  6
CONTINUOUS
 10
27.81900
 20
212.36500
 30
 0
 11
27.81900
 21
210.22600
  0
ARC
  8
Gravur
 62
   254
 39
0.400
  6
CONTINUOUS
 10
28.44000
 20
210.22600
 30
 0
 40
0.62100
 50
180.00000
 51
360.00000
  0
LINE
  8
Gravur
 62
   254
 39
0.400
  6
CONTINUOUS
 10
29.06100
 20
210.22600
 30
 0
 11
29.06100
 21
212.36500
  0
LINE
  8
Gravur
 62
   254
 39
0.400
  6
CONTINUOUS
 10
29.84300
 20
209.60500
 30
 0
 11
29.84300
 21
212.36500
  0
LINE
  8
Gravur
 62
   254
 39
0.400
  6
CONTINUOUS
 10
29.84300
 20
212.36500
 30
 0
 11
31.08500
 21
209.60500
  0
LINE
  8
Gravur
 62
   254
 39
0.400
  6
CONTINUOUS
 10
31.08500
 20
209.60500
 30
 0
 11
31.08500
 21
212.36500
  0
LINE
  8
Gravur
 62
   254
 39
0.400
  6
CONTINUOUS
 10
33.10900
 20
212.36500
 30
 0
 11
31.86700
 21
212.36500
  0
LINE
  8
Gravur
 62
   254
 39
0.400
  6
CONTINUOUS
 10
31.86700
 20
212.36500
 30
 0
 11
31.86700
 21
209.60500
  0
LINE
  8
Gravur
 62
   254
 39
0.400
  6
CONTINUOUS
 10
31.86700
 20
209.60500
 30
 0
 11
33.10900
 21
209.60500
  0
LINE
  8
Gravur
 62
   254
 39
0.400
  6
CONTINUOUS
 10
31.86700
 20
210.98500
 30
 0
 11
32.90200
 21
210.98500
  0
LINE
  8
Gravur
 62
   254
 39
0.400
  6
CONTINUOUS
 10
87.35300
 20
157.98500
 30
 0
 11
87.97400
 21
157.98500
  0
ARC
  8
Gravur
 62
   254
 39
0.400
  6
CONTINUOUS
 10
87.97400
 20
158.67500
 30
 0
 40
0.69000
 50
-90.00000
 51
90.00000
  0
LINE
  8
Gravur
 62
   254
 39
0.400
  6
CONTINUOUS
 10
87.97400
 20
159.36500
 30
 0
 11
87.35300
 21
159.36500
  0
LINE
  8
Gravur
 62
   254
 39
0.400
  6
CONTINUOUS
 10
87.35300
 20
159.36500
 30
 0
 11
87.35300
 21
156.60500
  0
LINE
  8
Gravur
 62
   254
 39
0.400
  6
CONTINUOUS
 10
89.44600
 20
159.36500
 30
 0
 11
90.06700
 21
156.60500
  0
LINE
  8
Gravur
 62
   254
 39
0.400
  6
CONTINUOUS
 10
90.06700
 20
156.60500
 30
 0
 11
90.68800
 21
159.36500
  0
LINE
  8
Gravur
 62
   254
 39
0.400
  6
CONTINUOUS
 10
90.68800
 20
159.36500
 30
 0
 11
91.30900
 21
156.60500
  0
LINE
  8
Gravur
 62
   254
 39
0.400
  6
CONTINUOUS
 10
91.30900
 20
156.60500
 30
 0
 11
91.93000
 21
159.36500
  0
LINE
  8
Gravur
 62
   254
 39
0.400
  6
CONTINUOUS
 10
92.71200
 20
156.60500
 30
 0
 11
92.71200
 21
159.36500
  0
LINE
  8
Gravur
 62
   254
 39
0.400
  6
CONTINUOUS
 10
92.71200
 20
159.36500
 30
 0
 11
93.60900
 21
157.43300
  0
LINE
  8
Gravur
 62
   254
 39
0.400
  6
CONTINUOUS
 10
93.60900
 20
157.43300
 30
 0
 11
94.50600
 21
159.36500
  0
LINE
  8
Gravur
 62
   254
 39
0.400
  6
CONTINUOUS
 10
94.50600
 20
159.36500
 30
 0
 11
94.50600
 21
156.60500
  0
ARC
  8
Gravur
 62
   254
 39
0.400
  6
CONTINUOUS
 10
95.83300
 20
158.79500
 30
 0
 40
0.57000
 50
91.60788
 51
-174.86924
  0
ARC
  8
Gravur
 62
   254
 39
0.400
  6
CONTINUOUS
 10
95.84600
 20
158.76500
 30
 0
 40
0.60100
 50
330.40873
 51
92.76714
  0
LINE
  8
Gravur
 62
   254
 39
0.400
  6
CONTINUOUS
 10
96.36900
 20
158.46800
 30
 0
 11
95.26500
 21
156.60500
  0
LINE
  8
Gravur
 62
   254
 39
0.400
  6
CONTINUOUS
 10
95.26500
 20
156.60500
 30
 0
 11
96.43800
 21
156.60500
  0
LINE
  8
Gravur
 62
   254
 39
0.400
  6
CONTINUOUS
 10
99.40500
 20
159.36500
 30
 0
 11
99.40500
 21
156.60500
  0
LINE
  8
Gravur
 62
   254
 39
0.400
  6
CONTINUOUS
 10
99.40500
 20
156.60500
 30
 0
 11
100.30200
 21
156.60500
  0
LINE
  8
Gravur
 62
   254
 39
0.400
  6
CONTINUOUS
 10
102.32600
 20
159.36500
 30
 0
 11
101.08400
 21
159.36500
  0
LINE
  8
Gravur
 62
   254
 39
0.400
  6
CONTINUOUS
 10
101.08400
 20
159.36500
 30
 0
 11
101.08400
 21
156.60500
  0
LINE
  8
Gravur
 62
   254
 39
0.400
  6
CONTINUOUS
 10
101.08400
 20
156.60500
 30
 0
 11
102.32600
 21
156.60500
  0
LINE
  8
Gravur
 62
   254
 39
0.400
  6
CONTINUOUS
 10
101.08400
 20
157.98500
 30
 0
 11
102.11900
 21
157.98500
  0
LINE
  8
Gravur
 62
   254
 39
0.400
  6
CONTINUOUS
 10
103.10800
 20
159.36500
 30
 0
 11
103.72900
 21
156.60500
  0
LINE
  8
Gravur
 62
   254
 39
0.400
  6
CONTINUOUS
 10
103.72900
 20
156.60500
 30
 0
 11
104.35000
 21
159.36500
  0
LINE
  8
Gravur
 62
   254
 39
0.400
  6
CONTINUOUS
 10
106.37400
 20
159.36500
 30
 0
 11
105.13200
 21
159.36500
  0
LINE
  8
Gravur
 62
   254
 39
0.400
  6
CONTINUOUS
 10
105.13200
 20
159.36500
 30
 0
 11
105.13200
 21
156.60500
  0
LINE
  8
Gravur
 62
   254
 39
0.400
  6
CONTINUOUS
 10
105.13200
 20
156.60500
 30
 0
 11
106.37400
 21
156.60500
  0
LINE
  8
Gravur
 62
   254
 39
0.400
  6
CONTINUOUS
 10
105.13200
 20
157.98500
 30
 0
 11
106.16700
 21
157.98500
  0
LINE
  8
Gravur
 62
   254
 39
0.400
  6
CONTINUOUS
 10
107.13300
 20
159.36500
 30
 0
 11
107.13300
 21
156.60500
  0
LINE
  8
Gravur
 62
   254
 39
0.400
  6
CONTINUOUS
 10
107.13300
 20
156.60500
 30
 0
 11
108.03000
 21
156.60500
  0
LINE
  8
Gravur
 62
   254
 39
0.400
  6
CONTINUOUS
 10
16.11400
 20
217.51900
 30
 0
 11
16.73500
 21
214.75900
  0
LINE
  8
Gravur
 62
   254
 39
0.400
  6
CONTINUOUS
 10
16.73500
 20
214.75900
 30
 0
 11
17.35600
 21
217.51900
  0
ARC
  8
Gravur
 62
   254
 39
0.400
  6
CONTINUOUS
 10
18.75900
 20
215.38000
 30
 0
 40
0.62100
 50
180.00000
 51
360.00000
  0
LINE
  8
Gravur
 62
   254
 39
0.400
  6
CONTINUOUS
 10
19.38000
 20
215.38000
 30
 0
 11
19.38000
 21
216.89800
  0
ARC
  8
Gravur
 62
   254
 39
0.400
  6
CONTINUOUS
 10
18.75900
 20
216.89800
 30
 0
 40
0.62100
 50
0.00000
 51
180.00000
  0
LINE
  8
Gravur
 62
   254
 39
0.400
  6
CONTINUOUS
 10
18.13800
 20
216.89800
 30
 0
 11
18.13800
 21
215.38000
  0
LINE
  8
Gravur
 62
   254
 39
0.400
  6
CONTINUOUS
 10
20.13900
 20
217.51900
 30
 0
 11
20.13900
 21
214.75900
  0
LINE
  8
Gravur
 62
   254
 39
0.400
  6
CONTINUOUS
 10
20.13900
 20
214.75900
 30
 0
 11
21.03600
 21
214.75900
  0
LINE
  8
Gravur
 62
   254
 39
0.400
  6
CONTINUOUS
 10
21.81800
 20
217.51900
 30
 0
 11
23.06000
 21
217.51900
  0
LINE
  8
Gravur
 62
   254
 39
0.400
  6
CONTINUOUS
 10
23.06000
 20
217.51900
 30
 0
 11
22.43900
 21
217.51900
  0
LINE
  8
Gravur
 62
   254
 39
0.400
  6
CONTINUOUS
 10
22.43900
 20
217.51900
 30
 0
 11
22.43900
 21
214.75900
  0
LINE
  8
Gravur
 62
   254
 39
0.400
  6
CONTINUOUS
 10
23.84200
 20
214.75900
 30
 0
 11
24.67000
 21
217.51900
  0
LINE
  8
Gravur
 62
   254
 39
0.400
  6
CONTINUOUS
 10
24.67000
 20
217.51900
 30
 0
 11
25.49800
 21
214.75900
  0
LINE
  8
Gravur
 62
   254
 39
0.400
  6
CONTINUOUS
 10
24.11800
 20
215.58700
 30
 0
 11
25.22200
 21
215.58700
  0
ARC
  8
Gravur
 62
   254
 39
0.400
  6
CONTINUOUS
 10
26.90100
 20
216.89800
 30
 0
 40
0.62100
 50
0.00000
 51
180.00000
  0
LINE
  8
Gravur
 62
   254
 39
0.400
  6
CONTINUOUS
 10
26.28000
 20
216.89800
 30
 0
 11
26.28000
 21
215.38000
  0
ARC
  8
Gravur
 62
   254
 39
0.400
  6
CONTINUOUS
 10
26.90100
 20
215.38000
 30
 0
 40
0.62100
 50
180.00000
 51
360.00000
  0
LINE
  8
Gravur
 62
   254
 39
0.400
  6
CONTINUOUS
 10
27.52200
 20
215.38000
 30
 0
 11
27.52200
 21
216.07000
  0
LINE
  8
Gravur
 62
   254
 39
0.400
  6
CONTINUOUS
 10
27.52200
 20
216.07000
 30
 0
 11
26.90100
 21
216.07000
  0
LINE
  8
Gravur
 62
   254
 39
0.400
  6
CONTINUOUS
 10
29.54600
 20
217.51900
 30
 0
 11
28.30400
 21
217.51900
  0
LINE
  8
Gravur
 62
   254
 39
0.400
  6
CONTINUOUS
 10
28.30400
 20
217.51900
 30
 0
 11
28.30400
 21
214.75900
  0
LINE
  8
Gravur
 62
   254
 39
0.400
  6
CONTINUOUS
 10
28.30400
 20
214.75900
 30
 0
 11
29.54600
 21
214.75900
  0
LINE
  8
Gravur
 62
   254
 39
0.400
  6
CONTINUOUS
 10
28.30400
 20
216.13900
 30
 0
 11
29.33900
 21
216.13900
  0
LINE
  8
Gravur
 62
   254
 39
0.400
  6
CONTINUOUS
 10
30.32800
 20
216.13900
 30
 0
 11
32.26000
 21
216.13900
  0
ARC
  8
Gravur
 62
   254
 39
0.400
  6
CONTINUOUS
 10
33.64000
 20
216.92100
 30
 0
 40
0.59800
 50
0.00000
 51
180.00000
  0
LINE
  8
Gravur
 62
   254
 39
0.400
  6
CONTINUOUS
 10
33.04200
 20
216.92100
 30
 0
 11
33.04200
 21
215.35700
  0
ARC
  8
Gravur
 62
   254
 39
0.400
  6
CONTINUOUS
 10
33.64000
 20
215.35700
 30
 0
 40
0.59800
 50
180.00000
 51
360.00000
  0
ARC
  8
Gravur
 62
   254
 39
0.400
  6
CONTINUOUS
 10
35.64100
 20
215.38000
 30
 0
 40
0.62100
 50
180.00000
 51
360.00000
  0
LINE
  8
Gravur
 62
   254
 39
0.400
  6
CONTINUOUS
 10
36.26200
 20
215.38000
 30
 0
 11
36.26200
 21
216.89800
  0
ARC
  8
Gravur
 62
   254
 39
0.400
  6
CONTINUOUS
 10
35.64100
 20
216.89800
 30
 0
 40
0.62100
 50
0.00000
 51
180.00000
  0
LINE
  8
Gravur
 62
   254
 39
0.400
  6
CONTINUOUS
 10
35.02000
 20
216.89800
 30
 0
 11
35.02000
 21
215.38000
  0
LINE
  8
Gravur
 62
   254
 39
0.400
  6
CONTINUOUS
 10
37.04400
 20
214.75900
 30
 0
 11
37.04400
 21
217.51900
  0
LINE
  8
Gravur
 62
   254
 39
0.400
  6
CONTINUOUS
 10
37.04400
 20
217.51900
 30
 0
 11
38.28600
 21
214.75900
  0
LINE
  8
Gravur
 62
   254
 39
0.400
  6
CONTINUOUS
 10
38.28600
 20
214.75900
 30
 0
 11
38.28600
 21
217.51900
  0
LINE
  8
Gravur
 62
   254
 39
0.400
  6
CONTINUOUS
 10
39.06800
 20
217.51900
 30
 0
 11
40.31000
 21
217.51900
  0
LINE
  8
Gravur
 62
   254
 39
0.400
  6
CONTINUOUS
 10
40.31000
 20
217.51900
 30
 0
 11
39.68900
 21
217.51900
  0
LINE
  8
Gravur
 62
   254
 39
0.400
  6
CONTINUOUS
 10
39.68900
 20
217.51900
 30
 0
 11
39.68900
 21
214.75900
  0
LINE
  8
Gravur
 62
   254
 39
0.400
  6
CONTINUOUS
 10
41.06900
 20
214.75900
 30
 0
 11
41.06900
 21
217.51900
  0
LINE
  8
Gravur
 62
   254
 39
0.400
  6
CONTINUOUS
 10
41.06900
 20
217.51900
 30
 0
 11
41.69000
 21
217.51900
  0
ARC
  8
Gravur
 62
   254
 39
0.400
  6
CONTINUOUS
 10
41.69000
 20
216.82900
 30
 0
 40
0.69000
 50
270.00000
 51
90.00000
  0
LINE
  8
Gravur
 62
   254
 39
0.400
  6
CONTINUOUS
 10
41.69000
 20
216.13900
 30
 0
 11
41.06900
 21
216.13900
  0
LINE
  8
Gravur
 62
   254
 39
0.400
  6
CONTINUOUS
 10
41.06900
 20
216.13900
 30
 0
 11
41.69000
 21
216.13900
  0
LINE
  8
Gravur
 62
   254
 39
0.400
  6
CONTINUOUS
 10
41.69000
 20
216.13900
 30
 0
 11
42.38000
 21
214.75900
  0
ARC
  8
Gravur
 62
   254
 39
0.400
  6
CONTINUOUS
 10
43.78300
 20
215.38000
 30
 0
 40
0.62100
 50
180.00000
 51
360.00000
  0
LINE
  8
Gravur
 62
   254
 39
0.400
  6
CONTINUOUS
 10
44.40400
 20
215.38000
 30
 0
 11
44.40400
 21
216.89800
  0
ARC
  8
Gravur
 62
   254
 39
0.400
  6
CONTINUOUS
 10
43.78300
 20
216.89800
 30
 0
 40
0.62100
 50
0.00000
 51
180.00000
  0
LINE
  8
Gravur
 62
   254
 39
0.400
  6
CONTINUOUS
 10
43.16200
 20
216.89800
 30
 0
 11
43.16200
 21
215.38000
  0
LINE
  8
Gravur
 62
   254
 39
0.400
  6
CONTINUOUS
 10
45.16300
 20
217.51900
 30
 0
 11
45.16300
 21
214.75900
  0
LINE
  8
Gravur
 62
   254
 39
0.400
  6
CONTINUOUS
 10
45.16300
 20
214.75900
 30
 0
 11
46.06000
 21
214.75900
  0
LINE
  8
Gravur
 62
   254
 39
0.400
  6
CONTINUOUS
 10
46.81900
 20
217.51900
 30
 0
 11
46.81900
 21
214.75900
  0
LINE
  8
Gravur
 62
   254
 39
0.400
  6
CONTINUOUS
 10
46.81900
 20
214.75900
 30
 0
 11
47.71600
 21
214.75900
  0
LINE
  8
Gravur
 62
   254
 39
0.400
  6
CONTINUOUS
 10
49.74000
 20
217.51900
 30
 0
 11
48.49800
 21
217.51900
  0
LINE
  8
Gravur
 62
   254
 39
0.400
  6
CONTINUOUS
 10
48.49800
 20
217.51900
 30
 0
 11
48.49800
 21
214.75900
  0
LINE
  8
Gravur
 62
   254
 39
0.400
  6
CONTINUOUS
 10
48.49800
 20
214.75900
 30
 0
 11
49.74000
 21
214.75900
  0
LINE
  8
Gravur
 62
   254
 39
0.400
  6
CONTINUOUS
 10
48.49800
 20
216.13900
 30
 0
 11
49.53300
 21
216.13900
  0
LINE
  8
Gravur
 62
   254
 39
0.400
  6
CONTINUOUS
 10
50.52200
 20
214.75900
 30
 0
 11
50.52200
 21
217.51900
  0
LINE
  8
Gravur
 62
   254
 39
0.400
  6
CONTINUOUS
 10
50.52200
 20
217.51900
 30
 0
 11
51.07400
 21
217.51900
  0
ARC
  8
Gravur
 62
   254
 39
0.400
  6
CONTINUOUS
 10
51.07800
 20
216.83300
 30
 0
 40
0.68600
 50
359.66592
 51
90.33408
  0
LINE
  8
Gravur
 62
   254
 39
0.400
  6
CONTINUOUS
 10
51.76400
 20
216.82900
 30
 0
 11
51.76400
 21
215.44900
  0
ARC
  8
Gravur
 62
   254
 39
0.400
  6
CONTINUOUS
 10
51.07800
 20
215.44500
 30
 0
 40
0.68600
 50
269.66592
 51
0.33408
  0
LINE
  8
Gravur
 62
   254
 39
0.400
  6
CONTINUOUS
 10
51.07400
 20
214.75900
 30
 0
 11
50.52200
 21
214.75900
  0
ARC
  8
Gravur
 62
   254
 39
0.400
  6
CONTINUOUS
 10
55.37500
 20
215.38000
 30
 0
 40
0.62100
 50
180.00000
 51
360.00000
  0
LINE
  8
Gravur
 62
   254
 39
0.400
  6
CONTINUOUS
 10
55.99600
 20
215.38000
 30
 0
 11
55.99600
 21
216.89800
  0
ARC
  8
Gravur
 62
   254
 39
0.400
  6
CONTINUOUS
 10
55.37500
 20
216.89800
 30
 0
 40
0.62100
 50
0.00000
 51
180.00000
  0
LINE
  8
Gravur
 62
   254
 39
0.400
  6
CONTINUOUS
 10
54.75400
 20
216.89800
 30
 0
 11
54.75400
 21
215.38000
  0
ARC
  8
Gravur
 62
   254
 39
0.400
  6
CONTINUOUS
 10
57.46800
 20
215.44900
 30
 0
 40
0.69000
 50
180.00000
 51
360.00000
  0
ARC
  8
Gravur
 62
   254
 39
0.400
  6
CONTINUOUS
 10
57.47200
 20
215.45300
 30
 0
 40
0.68600
 50
-0.33408
 51
90.33408
  0
ARC
  8
Gravur
 62
   254
 39
0.400
  6
CONTINUOUS
 10
57.46800
 20
216.82900
 30
 0
 40
0.69000
 50
90.00000
 51
-90.00000
  0
ARC
  8
Gravur
 62
   254
 39
0.400
  6
CONTINUOUS
 10
57.47200
 20
216.83300
 30
 0
 40
0.68600
 50
359.66592
 51
90.33408
  0
ARC
  8
Gravur
 62
   254
 39
0.400
  6
CONTINUOUS
 10
59.53800
 20
216.92100
 30
 0
 40
0.59800
 50
0.00000
 51
180.00000
  0
LINE
  8
Gravur
 62
   254
 39
0.400
  6
CONTINUOUS
 10
58.94000
 20
216.92100
 30
 0
 11
58.94000
 21
215.35700
  0
ARC
  8
Gravur
 62
   254
 39
0.400
  6
CONTINUOUS
 10
59.53800
 20
215.35700
 30
 0
 40
0.59800
 50
180.00000
 51
360.00000
  0
LINE
  8
Gravur
 62
   254
 39
0.400
  6
CONTINUOUS
 10
60.91800
 20
217.51900
 30
 0
 11
60.91800
 21
214.75900
  0
LINE
  8
Gravur
 62
   254
 39
0.400
  6
CONTINUOUS
 10
61.67700
 20
217.51900
 30
 0
 11
61.67700
 21
214.75900
  0
LINE
  8
Gravur
 62
   254
 39
0.400
  6
CONTINUOUS
 10
61.67700
 20
214.75900
 30
 0
 11
62.57400
 21
214.75900
  0
LINE
  8
Gravur
 62
   254
 39
0.400
  6
CONTINUOUS
 10
63.33300
 20
217.51900
 30
 0
 11
63.33300
 21
214.75900
  0
LINE
  8
Gravur
 62
   254
 39
0.400
  6
CONTINUOUS
 10
63.33300
 20
214.75900
 30
 0
 11
64.23000
 21
214.75900
  0
LINE
  8
Gravur
 62
   254
 39
0.400
  6
CONTINUOUS
 10
65.01200
 20
214.75900
 30
 0
 11
65.84000
 21
217.51900
  0
LINE
  8
Gravur
 62
   254
 39
0.400
  6
CONTINUOUS
 10
65.84000
 20
217.51900
 30
 0
 11
66.66800
 21
214.75900
  0
LINE
  8
Gravur
 62
   254
 39
0.400
  6
CONTINUOUS
 10
65.28800
 20
215.58700
 30
 0
 11
66.39200
 21
215.58700
  0
LINE
  8
Gravur
 62
   254
 39
0.400
  6
CONTINUOUS
 10
67.45000
 20
217.51900
 30
 0
 11
68.69200
 21
217.51900
  0
LINE
  8
Gravur
 62
   254
 39
0.400
  6
CONTINUOUS
 10
68.69200
 20
217.51900
 30
 0
 11
68.07100
 21
217.51900
  0
LINE
  8
Gravur
 62
   254
 39
0.400
  6
CONTINUOUS
 10
68.07100
 20
217.51900
 30
 0
 11
68.07100
 21
214.75900
  0
ARC
  8
Gravur
 62
   254
 39
0.400
  6
CONTINUOUS
 10
70.09500
 20
215.38000
 30
 0
 40
0.62100
 50
180.00000
 51
360.00000
  0
LINE
  8
Gravur
 62
   254
 39
0.400
  6
CONTINUOUS
 10
70.71600
 20
215.38000
 30
 0
 11
70.71600
 21
216.89800
  0
ARC
  8
Gravur
 62
   254
 39
0.400
  6
CONTINUOUS
 10
70.09500
 20
216.89800
 30
 0
 40
0.62100
 50
0.00000
 51
180.00000
  0
LINE
  8
Gravur
 62
   254
 39
0.400
  6
CONTINUOUS
 10
69.47400
 20
216.89800
 30
 0
 11
69.47400
 21
215.38000
  0
LINE
  8
Gravur
 62
   254
 39
0.400
  6
CONTINUOUS
 10
71.47500
 20
214.75900
 30
 0
 11
71.47500
 21
217.51900
  0
LINE
  8
Gravur
 62
   254
 39
0.400
  6
CONTINUOUS
 10
71.47500
 20
217.51900
 30
 0
 11
72.09600
 21
217.51900
  0
ARC
  8
Gravur
 62
   254
 39
0.400
  6
CONTINUOUS
 10
72.09600
 20
216.82900
 30
 0
 40
0.69000
 50
270.00000
 51
90.00000
  0
LINE
  8
Gravur
 62
   254
 39
0.400
  6
CONTINUOUS
 10
72.09600
 20
216.13900
 30
 0
 11
71.47500
 21
216.13900
  0
LINE
  8
Gravur
 62
   254
 39
0.400
  6
CONTINUOUS
 10
71.47500
 20
216.13900
 30
 0
 11
72.09600
 21
216.13900
  0
LINE
  8
Gravur
 62
   254
 39
0.400
  6
CONTINUOUS
 10
72.09600
 20
216.13900
 30
 0
 11
72.78600
 21
214.75900
  0
LINE
  8
Gravur
 62
   254
 39
0.600
  6
CONTINUOUS
 10
99.00000
 20
146.75000
 30
 0
 11
99.00000
 21
139.19000
  0
LINE
  8
Gravur
 62
   254
 39
0.400
  6
CONTINUOUS
 10
1.01600
 20
163.60000
 30
 0
 11
174.44400
 21
163.60000
  0
LINE
  8
Gravur
 62
   254
 39
0.400
  6
CONTINUOUS
 10
41.96000
 20
145.44000
 30
 0
 11
41.96000
 21
163.22000
  0
ARC
  8
Gravur
 62
   254
 39
0.400
  6
CONTINUOUS
 10
97.59700
 20
31.29500
 30
 0
 40
0.69000
 50
180.00000
 51
360.00000
  0
ARC
  8
Gravur
 62
   254
 39
0.400
  6
CONTINUOUS
 10
97.60100
 20
31.29900
 30
 0
 40
0.68600
 50
-0.33408
 51
90.33408
  0
ARC
  8
Gravur
 62
   254
 39
0.400
  6
CONTINUOUS
 10
97.59700
 20
32.67500
 30
 0
 40
0.69000
 50
90.00000
 51
-90.00000
  0
ARC
  8
Gravur
 62
   254
 39
0.400
  6
CONTINUOUS
 10
97.60100
 20
32.67900
 30
 0
 40
0.68600
 50
359.66592
 51
90.33408
  0
LINE
  8
Gravur
 62
   254
 39
0.400
  6
CONTINUOUS
 10
99.06900
 20
33.36500
 30
 0
 11
99.06900
 21
30.60500
  0
LINE
  8
Gravur
 62
   254
 39
0.400
  6
CONTINUOUS
 10
99.85100
 20
30.60500
 30
 0
 11
99.85100
 21
33.36500
  0
LINE
  8
Gravur
 62
   254
 39
0.400
  6
CONTINUOUS
 10
99.85100
 20
33.36500
 30
 0
 11
101.09300
 21
30.60500
  0
LINE
  8
Gravur
 62
   254
 39
0.400
  6
CONTINUOUS
 10
101.09300
 20
30.60500
 30
 0
 11
101.09300
 21
33.36500
  0
ARC
  8
Gravur
 62
   254
 39
0.400
  6
CONTINUOUS
 10
154.51500
 20
200.76700
 30
 0
 40
0.59800
 50
0.00000
 51
180.00000
  0
LINE
  8
Gravur
 62
   254
 39
0.400
  6
CONTINUOUS
 10
153.91700
 20
200.76700
 30
 0
 11
153.91700
 21
199.20300
  0
ARC
  8
Gravur
 62
   254
 39
0.400
  6
CONTINUOUS
 10
154.51500
 20
199.20300
 30
 0
 40
0.59800
 50
180.00000
 51
360.00000
  0
LINE
  8
Gravur
 62
   254
 39
0.400
  6
CONTINUOUS
 10
155.89500
 20
201.36500
 30
 0
 11
156.51600
 21
198.60500
  0
LINE
  8
Gravur
 62
   254
 39
0.400
  6
CONTINUOUS
 10
156.51600
 20
198.60500
 30
 0
 11
157.13700
 21
201.36500
  0
ARC
  8
Gravur
 62
   254
 39
0.400
  6
CONTINUOUS
 10
158.46400
 20
200.79500
 30
 0
 40
0.57000
 50
91.60788
 51
-174.86924
  0
ARC
  8
Gravur
 62
   254
 39
0.400
  6
CONTINUOUS
 10
158.47700
 20
200.76500
 30
 0
 40
0.60100
 50
330.40873
 51
92.76714
  0
LINE
  8
Gravur
 62
   254
 39
0.400
  6
CONTINUOUS
 10
159.00000
 20
200.46800
 30
 0
 11
157.89600
 21
198.60500
  0
LINE
  8
Gravur
 62
   254
 39
0.400
  6
CONTINUOUS
 10
157.89600
 20
198.60500
 30
 0
 11
159.06900
 21
198.60500
  0
LINE
  8
Gravur
 62
   254
 39
0.400
  6
CONTINUOUS
 10
162.05900
 20
201.36500
 30
 0
 11
162.05900
 21
198.60500
  0
LINE
  8
Gravur
 62
   254
 39
0.400
  6
CONTINUOUS
 10
162.84100
 20
198.60500
 30
 0
 11
162.84100
 21
201.36500
  0
LINE
  8
Gravur
 62
   254
 39
0.400
  6
CONTINUOUS
 10
162.84100
 20
201.36500
 30
 0
 11
164.08300
 21
198.60500
  0
LINE
  8
Gravur
 62
   254
 39
0.400
  6
CONTINUOUS
 10
164.08300
 20
198.60500
 30
 0
 11
164.08300
 21
201.36500
  0
LINE
  8
Gravur
 62
   254
 39
0.400
  6
CONTINUOUS
 10
60.95300
 20
33.36500
 30
 0
 11
62.19500
 21
33.36500
  0
LINE
  8
Gravur
 62
   254
 39
0.400
  6
CONTINUOUS
 10
62.19500
 20
33.36500
 30
 0
 11
61.57400
 21
33.36500
  0
LINE
  8
Gravur
 62
   254
 39
0.400
  6
CONTINUOUS
 10
61.57400
 20
33.36500
 30
 0
 11
61.57400
 21
30.60500
  0
LINE
  8
Gravur
 62
   254
 39
0.400
  6
CONTINUOUS
 10
62.95400
 20
30.60500
 30
 0
 11
62.95400
 21
33.36500
  0
LINE
  8
Gravur
 62
   254
 39
0.400
  6
CONTINUOUS
 10
62.95400
 20
33.36500
 30
 0
 11
63.57500
 21
33.36500
  0
ARC
  8
Gravur
 62
   254
 39
0.400
  6
CONTINUOUS
 10
63.57500
 20
32.67500
 30
 0
 40
0.69000
 50
270.00000
 51
90.00000
  0
LINE
  8
Gravur
 62
   254
 39
0.400
  6
CONTINUOUS
 10
63.57500
 20
31.98500
 30
 0
 11
62.95400
 21
31.98500
  0
LINE
  8
Gravur
 62
   254
 39
0.400
  6
CONTINUOUS
 10
62.95400
 20
31.98500
 30
 0
 11
63.57500
 21
31.98500
  0
LINE
  8
Gravur
 62
   254
 39
0.400
  6
CONTINUOUS
 10
63.57500
 20
31.98500
 30
 0
 11
64.26500
 21
30.60500
  0
LINE
  8
Gravur
 62
   254
 39
0.400
  6
CONTINUOUS
 10
65.04700
 20
33.36500
 30
 0
 11
65.04700
 21
30.60500
  0
ARC
  8
Gravur
 62
   254
 39
0.400
  6
CONTINUOUS
 10
126.68700
 20
200.76700
 30
 0
 40
0.59800
 50
0.00000
 51
180.00000
  0
LINE
  8
Gravur
 62
   254
 39
0.400
  6
CONTINUOUS
 10
126.08900
 20
200.76700
 30
 0
 11
126.08900
 21
199.20300
  0
ARC
  8
Gravur
 62
   254
 39
0.400
  6
CONTINUOUS
 10
126.68700
 20
199.20300
 30
 0
 40
0.59800
 50
180.00000
 51
360.00000
  0
LINE
  8
Gravur
 62
   254
 39
0.400
  6
CONTINUOUS
 10
128.06700
 20
201.36500
 30
 0
 11
128.68800
 21
198.60500
  0
LINE
  8
Gravur
 62
   254
 39
0.400
  6
CONTINUOUS
 10
128.68800
 20
198.60500
 30
 0
 11
129.30900
 21
201.36500
  0
LINE
  8
Gravur
 62
   254
 39
0.400
  6
CONTINUOUS
 10
132.27600
 20
200.67500
 30
 0
 11
132.89700
 21
201.36500
  0
LINE
  8
Gravur
 62
   254
 39
0.400
  6
CONTINUOUS
 10
132.89700
 20
201.36500
 30
 0
 11
132.89700
 21
198.60500
  0
LINE
  8
Gravur
 62
   254
 39
0.400
  6
CONTINUOUS
 10
135.88700
 20
201.36500
 30
 0
 11
135.88700
 21
198.60500
  0
LINE
  8
Gravur
 62
   254
 39
0.400
  6
CONTINUOUS
 10
136.66900
 20
198.60500
 30
 0
 11
136.66900
 21
201.36500
  0
LINE
  8
Gravur
 62
   254
 39
0.400
  6
CONTINUOUS
 10
136.66900
 20
201.36500
 30
 0
 11
137.91100
 21
198.60500
  0
LINE
  8
Gravur
 62
   254
 39
0.400
  6
CONTINUOUS
 10
137.91100
 20
198.60500
 30
 0
 11
137.91100
 21
201.36500
  0
LINE
  8
Gravur
 62
   254
 39
0.600
  6
CONTINUOUS
 10
99.00000
 20
204.80000
 30
 0
 11
99.00000
 21
197.24000
  0
ARC
  8
Gravur
 62
   254
 39
0.400
  6
CONTINUOUS
 10
91.50200
 20
211.76700
 30
 0
 40
0.59800
 50
0.00000
 51
180.00000
  0
LINE
  8
Gravur
 62
   254
 39
0.400
  6
CONTINUOUS
 10
90.90400
 20
211.76700
 30
 0
 11
90.90400
 21
210.20300
  0
ARC
  8
Gravur
 62
   254
 39
0.400
  6
CONTINUOUS
 10
91.50200
 20
210.20300
 30
 0
 40
0.59800
 50
180.00000
 51
360.00000
  0
LINE
  8
Gravur
 62
   254
 39
0.400
  6
CONTINUOUS
 10
92.88200
 20
212.36500
 30
 0
 11
93.50300
 21
209.60500
  0
LINE
  8
Gravur
 62
   254
 39
0.400
  6
CONTINUOUS
 10
93.50300
 20
209.60500
 30
 0
 11
94.12400
 21
212.36500
  0
LINE
  8
Gravur
 62
   254
 39
0.400
  6
CONTINUOUS
 10
94.88300
 20
211.67500
 30
 0
 11
95.50400
 21
212.36500
  0
LINE
  8
Gravur
 62
   254
 39
0.400
  6
CONTINUOUS
 10
95.50400
 20
212.36500
 30
 0
 11
95.50400
 21
209.60500
  0
LINE
  8
Gravur
 62
   254
 39
0.400
  6
CONTINUOUS
 10
98.47100
 20
212.36500
 30
 0
 11
98.47100
 21
209.60500
  0
LINE
  8
Gravur
 62
   254
 39
0.400
  6
CONTINUOUS
 10
98.47100
 20
209.60500
 30
 0
 11
99.36800
 21
209.60500
  0
LINE
  8
Gravur
 62
   254
 39
0.400
  6
CONTINUOUS
 10
101.39200
 20
212.36500
 30
 0
 11
100.15000
 21
212.36500
  0
LINE
  8
Gravur
 62
   254
 39
0.400
  6
CONTINUOUS
 10
100.15000
 20
212.36500
 30
 0
 11
100.15000
 21
209.60500
  0
LINE
  8
Gravur
 62
   254
 39
0.400
  6
CONTINUOUS
 10
100.15000
 20
209.60500
 30
 0
 11
101.39200
 21
209.60500
  0
LINE
  8
Gravur
 62
   254
 39
0.400
  6
CONTINUOUS
 10
100.15000
 20
210.98500
 30
 0
 11
101.18500
 21
210.98500
  0
LINE
  8
Gravur
 62
   254
 39
0.400
  6
CONTINUOUS
 10
102.17400
 20
212.36500
 30
 0
 11
102.79500
 21
209.60500
  0
LINE
  8
Gravur
 62
   254
 39
0.400
  6
CONTINUOUS
 10
102.79500
 20
209.60500
 30
 0
 11
103.41600
 21
212.36500
  0
LINE
  8
Gravur
 62
   254
 39
0.400
  6
CONTINUOUS
 10
105.44000
 20
212.36500
 30
 0
 11
104.19800
 21
212.36500
  0
LINE
  8
Gravur
 62
   254
 39
0.400
  6
CONTINUOUS
 10
104.19800
 20
212.36500
 30
 0
 11
104.19800
 21
209.60500
  0
LINE
  8
Gravur
 62
   254
 39
0.400
  6
CONTINUOUS
 10
104.19800
 20
209.60500
 30
 0
 11
105.44000
 21
209.60500
  0
LINE
  8
Gravur
 62
   254
 39
0.400
  6
CONTINUOUS
 10
104.19800
 20
210.98500
 30
 0
 11
105.23300
 21
210.98500
  0
LINE
  8
Gravur
 62
   254
 39
0.400
  6
CONTINUOUS
 10
106.19900
 20
212.36500
 30
 0
 11
106.19900
 21
209.60500
  0
LINE
  8
Gravur
 62
   254
 39
0.400
  6
CONTINUOUS
 10
106.19900
 20
209.60500
 30
 0
 11
107.09600
 21
209.60500
  0
LINE
  8
Gravur
 62
   254
 39
0.400
  6
CONTINUOUS
 10
127.41200
 20
31.98500
 30
 0
 11
128.03300
 21
31.98500
  0
ARC
  8
Gravur
 62
   254
 39
0.400
  6
CONTINUOUS
 10
128.03300
 20
32.67500
 30
 0
 40
0.69000
 50
-90.00000
 51
90.00000
  0
LINE
  8
Gravur
 62
   254
 39
0.400
  6
CONTINUOUS
 10
128.03300
 20
33.36500
 30
 0
 11
127.41200
 21
33.36500
  0
LINE
  8
Gravur
 62
   254
 39
0.400
  6
CONTINUOUS
 10
127.41200
 20
33.36500
 30
 0
 11
127.41200
 21
30.60500
  0
LINE
  8
Gravur
 62
   254
 39
0.400
  6
CONTINUOUS
 10
129.50500
 20
33.36500
 30
 0
 11
129.50500
 21
31.22600
  0
ARC
  8
Gravur
 62
   254
 39
0.400
  6
CONTINUOUS
 10
130.12600
 20
31.22600
 30
 0
 40
0.62100
 50
180.00000
 51
360.00000
  0
LINE
  8
Gravur
 62
   254
 39
0.400
  6
CONTINUOUS
 10
130.74700
 20
31.22600
 30
 0
 11
130.74700
 21
33.36500
  0
LINE
  8
Gravur
 62
   254
 39
0.400
  6
CONTINUOUS
 10
131.50600
 20
33.36500
 30
 0
 11
131.50600
 21
30.60500
  0
LINE
  8
Gravur
 62
   254
 39
0.400
  6
CONTINUOUS
 10
131.50600
 20
30.60500
 30
 0
 11
132.40300
 21
30.60500
  0
ARC
  8
Gravur
 62
   254
 39
0.400
  6
CONTINUOUS
 10
133.87500
 20
31.29500
 30
 0
 40
0.69000
 50
180.00000
 51
360.00000
  0
ARC
  8
Gravur
 62
   254
 39
0.400
  6
CONTINUOUS
 10
133.87900
 20
31.29900
 30
 0
 40
0.68600
 50
-0.33408
 51
90.33408
  0
ARC
  8
Gravur
 62
   254
 39
0.400
  6
CONTINUOUS
 10
133.87500
 20
32.67500
 30
 0
 40
0.69000
 50
90.00000
 51
-90.00000
  0
ARC
  8
Gravur
 62
   254
 39
0.400
  6
CONTINUOUS
 10
133.87900
 20
32.67900
 30
 0
 40
0.68600
 50
359.66592
 51
90.33408
  0
LINE
  8
Gravur
 62
   254
 39
0.400
  6
CONTINUOUS
 10
136.58900
 20
33.36500
 30
 0
 11
135.34700
 21
33.36500
  0
LINE
  8
Gravur
 62
   254
 39
0.400
  6
CONTINUOUS
 10
135.34700
 20
33.36500
 30
 0
 11
135.34700
 21
30.60500
  0
LINE
  8
Gravur
 62
   254
 39
0.400
  6
CONTINUOUS
 10
135.34700
 20
30.60500
 30
 0
 11
136.58900
 21
30.60500
  0
LINE
  8
Gravur
 62
   254
 39
0.400
  6
CONTINUOUS
 10
135.34700
 20
31.98500
 30
 0
 11
136.38200
 21
31.98500
  0
LINE
  8
Gravur
 62
   254
 39
0.400
  6
CONTINUOUS
 10
93.34900
 20
105.98500
 30
 0
 11
93.97000
 21
105.98500
  0
ARC
  8
Gravur
 62
   254
 39
0.400
  6
CONTINUOUS
 10
93.97000
 20
106.67500
 30
 0
 40
0.69000
 50
-90.00000
 51
90.00000
  0
LINE
  8
Gravur
 62
   254
 39
0.400
  6
CONTINUOUS
 10
93.97000
 20
107.36500
 30
 0
 11
93.34900
 21
107.36500
  0
LINE
  8
Gravur
 62
   254
 39
0.400
  6
CONTINUOUS
 10
93.34900
 20
107.36500
 30
 0
 11
93.34900
 21
104.60500
  0
LINE
  8
Gravur
 62
   254
 39
0.400
  6
CONTINUOUS
 10
95.44200
 20
107.36500
 30
 0
 11
96.06300
 21
104.60500
  0
LINE
  8
Gravur
 62
   254
 39
0.400
  6
CONTINUOUS
 10
96.06300
 20
104.60500
 30
 0
 11
96.68400
 21
107.36500
  0
LINE
  8
Gravur
 62
   254
 39
0.400
  6
CONTINUOUS
 10
96.68400
 20
107.36500
 30
 0
 11
97.30500
 21
104.60500
  0
LINE
  8
Gravur
 62
   254
 39
0.400
  6
CONTINUOUS
 10
97.30500
 20
104.60500
 30
 0
 11
97.92600
 21
107.36500
  0
LINE
  8
Gravur
 62
   254
 39
0.400
  6
CONTINUOUS
 10
98.70800
 20
104.60500
 30
 0
 11
98.70800
 21
107.36500
  0
LINE
  8
Gravur
 62
   254
 39
0.400
  6
CONTINUOUS
 10
98.70800
 20
107.36500
 30
 0
 11
99.60500
 21
105.43300
  0
LINE
  8
Gravur
 62
   254
 39
0.400
  6
CONTINUOUS
 10
99.60500
 20
105.43300
 30
 0
 11
100.50200
 21
107.36500
  0
LINE
  8
Gravur
 62
   254
 39
0.400
  6
CONTINUOUS
 10
100.50200
 20
107.36500
 30
 0
 11
100.50200
 21
104.60500
  0
ARC
  8
Gravur
 62
   254
 39
0.400
  6
CONTINUOUS
 10
104.03700
 20
106.79500
 30
 0
 40
0.57000
 50
91.60788
 51
-174.86924
  0
ARC
  8
Gravur
 62
   254
 39
0.400
  6
CONTINUOUS
 10
104.05000
 20
106.76500
 30
 0
 40
0.60100
 50
330.40873
 51
92.76714
  0
LINE
  8
Gravur
 62
   254
 39
0.400
  6
CONTINUOUS
 10
104.57300
 20
106.46800
 30
 0
 11
103.46900
 21
104.60500
  0
LINE
  8
Gravur
 62
   254
 39
0.400
  6
CONTINUOUS
 10
103.46900
 20
104.60500
 30
 0
 11
104.64200
 21
104.60500
  0
ARC
  8
Gravur
 62
   254
 39
0.400
  6
CONTINUOUS
 10
19.14800
 20
31.29500
 30
 0
 40
0.69000
 50
180.00000
 51
360.00000
  0
ARC
  8
Gravur
 62
   254
 39
0.400
  6
CONTINUOUS
 10
19.15200
 20
31.29900
 30
 0
 40
0.68600
 50
-0.33408
 51
90.33408
  0
ARC
  8
Gravur
 62
   254
 39
0.400
  6
CONTINUOUS
 10
19.14800
 20
32.67500
 30
 0
 40
0.69000
 50
90.00000
 51
-90.00000
  0
ARC
  8
Gravur
 62
   254
 39
0.400
  6
CONTINUOUS
 10
19.15200
 20
32.67900
 30
 0
 40
0.68600
 50
359.66592
 51
90.33408
  0
LINE
  8
Gravur
 62
   254
 39
0.400
  6
CONTINUOUS
 10
20.62000
 20
30.60500
 30
 0
 11
21.44800
 21
33.36500
  0
LINE
  8
Gravur
 62
   254
 39
0.400
  6
CONTINUOUS
 10
21.44800
 20
33.36500
 30
 0
 11
22.27600
 21
30.60500
  0
LINE
  8
Gravur
 62
   254
 39
0.400
  6
CONTINUOUS
 10
20.89600
 20
31.43300
 30
 0
 11
22.00000
 21
31.43300
  0
LINE
  8
Gravur
 62
   254
 39
0.400
  6
CONTINUOUS
 10
23.05800
 20
33.36500
 30
 0
 11
23.67900
 21
30.60500
  0
LINE
  8
Gravur
 62
   254
 39
0.400
  6
CONTINUOUS
 10
23.67900
 20
30.60500
 30
 0
 11
24.30000
 21
33.36500
  0
LINE
  8
Gravur
 62
   254
 39
0.400
  6
CONTINUOUS
 10
24.30000
 20
33.36500
 30
 0
 11
24.92100
 21
30.60500
  0
LINE
  8
Gravur
 62
   254
 39
0.400
  6
CONTINUOUS
 10
24.92100
 20
30.60500
 30
 0
 11
25.54200
 21
33.36500
  0
LINE
  8
Gravur
 62
   254
 39
0.400
  6
CONTINUOUS
 10
57.63000
 20
105.98500
 30
 0
 11
58.25100
 21
105.98500
  0
ARC
  8
Gravur
 62
   254
 39
0.400
  6
CONTINUOUS
 10
58.25100
 20
106.67500
 30
 0
 40
0.69000
 50
-90.00000
 51
90.00000
  0
LINE
  8
Gravur
 62
   254
 39
0.400
  6
CONTINUOUS
 10
58.25100
 20
107.36500
 30
 0
 11
57.63000
 21
107.36500
  0
LINE
  8
Gravur
 62
   254
 39
0.400
  6
CONTINUOUS
 10
57.63000
 20
107.36500
 30
 0
 11
57.63000
 21
104.60500
  0
LINE
  8
Gravur
 62
   254
 39
0.400
  6
CONTINUOUS
 10
59.72300
 20
107.36500
 30
 0
 11
60.34400
 21
104.60500
  0
LINE
  8
Gravur
 62
   254
 39
0.400
  6
CONTINUOUS
 10
60.34400
 20
104.60500
 30
 0
 11
60.96500
 21
107.36500
  0
LINE
  8
Gravur
 62
   254
 39
0.400
  6
CONTINUOUS
 10
60.96500
 20
107.36500
 30
 0
 11
61.58600
 21
104.60500
  0
LINE
  8
Gravur
 62
   254
 39
0.400
  6
CONTINUOUS
 10
61.58600
 20
104.60500
 30
 0
 11
62.20700
 21
107.36500
  0
LINE
  8
Gravur
 62
   254
 39
0.400
  6
CONTINUOUS
 10
62.98900
 20
104.60500
 30
 0
 11
62.98900
 21
107.36500
  0
LINE
  8
Gravur
 62
   254
 39
0.400
  6
CONTINUOUS
 10
62.98900
 20
107.36500
 30
 0
 11
63.88600
 21
105.43300
  0
LINE
  8
Gravur
 62
   254
 39
0.400
  6
CONTINUOUS
 10
63.88600
 20
105.43300
 30
 0
 11
64.78300
 21
107.36500
  0
LINE
  8
Gravur
 62
   254
 39
0.400
  6
CONTINUOUS
 10
64.78300
 20
107.36500
 30
 0
 11
64.78300
 21
104.60500
  0
LINE
  8
Gravur
 62
   254
 39
0.400
  6
CONTINUOUS
 10
67.75000
 20
106.67500
 30
 0
 11
68.37100
 21
107.36500
  0
LINE
  8
Gravur
 62
   254
 39
0.400
  6
CONTINUOUS
 10
68.37100
 20
107.36500
 30
 0
 11
68.37100
 21
104.60500
  0
ARC
  8
Gravur
 62
   254
 39
0.400
  6
CONTINUOUS
 10
150.83500
 20
157.29500
 30
 0
 40
0.69000
 50
180.00000
 51
360.00000
  0
ARC
  8
Gravur
 62
   254
 39
0.400
  6
CONTINUOUS
 10
150.83900
 20
157.29900
 30
 0
 40
0.68600
 50
-0.33408
 51
90.33408
  0
ARC
  8
Gravur
 62
   254
 39
0.400
  6
CONTINUOUS
 10
150.83500
 20
158.67500
 30
 0
 40
0.69000
 50
90.00000
 51
-90.00000
  0
ARC
  8
Gravur
 62
   254
 39
0.400
  6
CONTINUOUS
 10
150.83900
 20
158.67900
 30
 0
 40
0.68600
 50
359.66592
 51
90.33408
  0
ARC
  8
Gravur
 62
   254
 39
0.400
  6
CONTINUOUS
 10
152.92800
 20
157.22600
 30
 0
 40
0.62100
 50
180.00000
 51
360.00000
  0
LINE
  8
Gravur
 62
   254
 39
0.400
  6
CONTINUOUS
 10
153.54900
 20
157.22600
 30
 0
 11
153.54900
 21
158.74400
  0
ARC
  8
Gravur
 62
   254
 39
0.400
  6
CONTINUOUS
 10
152.92800
 20
158.74400
 30
 0
 40
0.62100
 50
0.00000
 51
180.00000
  0
LINE
  8
Gravur
 62
   254
 39
0.400
  6
CONTINUOUS
 10
152.30700
 20
158.74400
 30
 0
 11
152.30700
 21
157.22600
  0
LINE
  8
Gravur
 62
   254
 39
0.400
  6
CONTINUOUS
 10
155.43500
 20
159.36500
 30
 0
 11
154.33100
 21
159.36500
  0
LINE
  8
Gravur
 62
   254
 39
0.400
  6
CONTINUOUS
 10
154.33100
 20
159.36500
 30
 0
 11
154.33100
 21
156.60500
  0
LINE
  8
Gravur
 62
   254
 39
0.400
  6
CONTINUOUS
 10
154.33100
 20
156.60500
 30
 0
 11
154.33100
 21
157.98500
  0
LINE
  8
Gravur
 62
   254
 39
0.400
  6
CONTINUOUS
 10
154.33100
 20
157.98500
 30
 0
 11
155.02100
 21
157.98500
  0
LINE
  8
Gravur
 62
   254
 39
0.400
  6
CONTINUOUS
 10
156.21700
 20
159.36500
 30
 0
 11
157.45900
 21
159.36500
  0
LINE
  8
Gravur
 62
   254
 39
0.400
  6
CONTINUOUS
 10
157.45900
 20
159.36500
 30
 0
 11
156.83800
 21
159.36500
  0
LINE
  8
Gravur
 62
   254
 39
0.400
  6
CONTINUOUS
 10
156.83800
 20
159.36500
 30
 0
 11
156.83800
 21
156.60500
  0
ARC
  8
Gravur
 62
   254
 39
0.400
  6
CONTINUOUS
 10
161.13900
 20
157.29500
 30
 0
 40
0.69000
 50
180.00000
 51
360.00000
  0
ARC
  8
Gravur
 62
   254
 39
0.400
  6
CONTINUOUS
 10
161.14300
 20
157.29900
 30
 0
 40
0.68600
 50
-0.33408
 51
90.33408
  0
ARC
  8
Gravur
 62
   254
 39
0.400
  6
CONTINUOUS
 10
161.13900
 20
158.67500
 30
 0
 40
0.69000
 50
90.00000
 51
-90.00000
  0
ARC
  8
Gravur
 62
   254
 39
0.400
  6
CONTINUOUS
 10
161.14300
 20
158.67900
 30
 0
 40
0.68600
 50
359.66592
 51
90.33408
  0
LINE
  8
Gravur
 62
   254
 39
0.400
  6
CONTINUOUS
 10
162.61100
 20
159.36500
 30
 0
 11
163.23200
 21
157.64000
  0
LINE
  8
Gravur
 62
   254
 39
0.400
  6
CONTINUOUS
 10
163.23200
 20
157.64000
 30
 0
 11
163.23200
 21
156.60500
  0
LINE
  8
Gravur
 62
   254
 39
0.400
  6
CONTINUOUS
 10
163.23200
 20
156.60500
 30
 0
 11
163.23200
 21
157.64000
  0
LINE
  8
Gravur
 62
   254
 39
0.400
  6
CONTINUOUS
 10
163.23200
 20
157.64000
 30
 0
 11
163.85300
 21
159.36500
  0
LINE
  8
Gravur
 62
   254
 39
0.400
  6
CONTINUOUS
 10
164.63500
 20
156.60500
 30
 0
 11
164.63500
 21
159.36500
  0
LINE
  8
Gravur
 62
   254
 39
0.400
  6
CONTINUOUS
 10
164.63500
 20
159.36500
 30
 0
 11
165.87700
 21
156.60500
  0
LINE
  8
Gravur
 62
   254
 39
0.400
  6
CONTINUOUS
 10
165.87700
 20
156.60500
 30
 0
 11
165.87700
 21
159.36500
  0
ARC
  8
Gravur
 62
   254
 39
0.400
  6
CONTINUOUS
 10
167.25700
 20
158.76700
 30
 0
 40
0.59800
 50
0.00000
 51
180.00000
  0
LINE
  8
Gravur
 62
   254
 39
0.400
  6
CONTINUOUS
 10
166.65900
 20
158.76700
 30
 0
 11
166.65900
 21
157.20300
  0
ARC
  8
Gravur
 62
   254
 39
0.400
  6
CONTINUOUS
 10
167.25700
 20
157.20300
 30
 0
 40
0.59800
 50
180.00000
 51
360.00000
  0
LINE
  8
Gravur
 62
   254
 39
0.400
  6
CONTINUOUS
 10
56.29600
 20
157.98500
 30
 0
 11
56.91700
 21
157.98500
  0
ARC
  8
Gravur
 62
   254
 39
0.400
  6
CONTINUOUS
 10
56.91700
 20
158.67500
 30
 0
 40
0.69000
 50
-90.00000
 51
90.00000
  0
LINE
  8
Gravur
 62
   254
 39
0.400
  6
CONTINUOUS
 10
56.91700
 20
159.36500
 30
 0
 11
56.29600
 21
159.36500
  0
LINE
  8
Gravur
 62
   254
 39
0.400
  6
CONTINUOUS
 10
56.29600
 20
159.36500
 30
 0
 11
56.29600
 21
156.60500
  0
LINE
  8
Gravur
 62
   254
 39
0.400
  6
CONTINUOUS
 10
58.38900
 20
159.36500
 30
 0
 11
59.01000
 21
156.60500
  0
LINE
  8
Gravur
 62
   254
 39
0.400
  6
CONTINUOUS
 10
59.01000
 20
156.60500
 30
 0
 11
59.63100
 21
159.36500
  0
LINE
  8
Gravur
 62
   254
 39
0.400
  6
CONTINUOUS
 10
59.63100
 20
159.36500
 30
 0
 11
60.25200
 21
156.60500
  0
LINE
  8
Gravur
 62
   254
 39
0.400
  6
CONTINUOUS
 10
60.25200
 20
156.60500
 30
 0
 11
60.87300
 21
159.36500
  0
LINE
  8
Gravur
 62
   254
 39
0.400
  6
CONTINUOUS
 10
63.86300
 20
156.60500
 30
 0
 11
63.86300
 21
159.36500
  0
LINE
  8
Gravur
 62
   254
 39
0.400
  6
CONTINUOUS
 10
63.86300
 20
159.36500
 30
 0
 11
64.76000
 21
157.43300
  0
LINE
  8
Gravur
 62
   254
 39
0.400
  6
CONTINUOUS
 10
64.76000
 20
157.43300
 30
 0
 11
65.65700
 21
159.36500
  0
LINE
  8
Gravur
 62
   254
 39
0.400
  6
CONTINUOUS
 10
65.65700
 20
159.36500
 30
 0
 11
65.65700
 21
156.60500
  0
ARC
  8
Gravur
 62
   254
 39
0.400
  6
CONTINUOUS
 10
67.06000
 20
157.22600
 30
 0
 40
0.62100
 50
180.00000
 51
360.00000
  0
LINE
  8
Gravur
 62
   254
 39
0.400
  6
CONTINUOUS
 10
67.68100
 20
157.22600
 30
 0
 11
67.68100
 21
158.74400
  0
ARC
  8
Gravur
 62
   254
 39
0.400
  6
CONTINUOUS
 10
67.06000
 20
158.74400
 30
 0
 40
0.62100
 50
0.00000
 51
180.00000
  0
LINE
  8
Gravur
 62
   254
 39
0.400
  6
CONTINUOUS
 10
66.43900
 20
158.74400
 30
 0
 11
66.43900
 21
157.22600
  0
LINE
  8
Gravur
 62
   254
 39
0.400
  6
CONTINUOUS
 10
68.46300
 20
156.60500
 30
 0
 11
68.46300
 21
159.36500
  0
LINE
  8
Gravur
 62
   254
 39
0.400
  6
CONTINUOUS
 10
68.46300
 20
159.36500
 30
 0
 11
69.01500
 21
159.36500
  0
ARC
  8
Gravur
 62
   254
 39
0.400
  6
CONTINUOUS
 10
69.01900
 20
158.67900
 30
 0
 40
0.68600
 50
359.66592
 51
90.33408
  0
LINE
  8
Gravur
 62
   254
 39
0.400
  6
CONTINUOUS
 10
69.70500
 20
158.67500
 30
 0
 11
69.70500
 21
157.29500
  0
ARC
  8
Gravur
 62
   254
 39
0.400
  6
CONTINUOUS
 10
69.01900
 20
157.29100
 30
 0
 40
0.68600
 50
269.66592
 51
0.33408
  0
LINE
  8
Gravur
 62
   254
 39
0.400
  6
CONTINUOUS
 10
69.01500
 20
156.60500
 30
 0
 11
68.46300
 21
156.60500
  0
LINE
  8
Gravur
 62
   254
 39
0.600
  6
CONTINUOUS
 10
63.00000
 20
146.75000
 30
 0
 11
63.00000
 21
139.19000
  0
LINE
  8
Gravur
 62
   254
 39
0.400
  6
CONTINUOUS
 10
152.62900
 20
107.36500
 30
 0
 11
153.25000
 21
104.60500
  0
LINE
  8
Gravur
 62
   254
 39
0.400
  6
CONTINUOUS
 10
153.25000
 20
104.60500
 30
 0
 11
153.87100
 21
107.36500
  0
ARC
  8
Gravur
 62
   254
 39
0.400
  6
CONTINUOUS
 10
155.25100
 20
106.76700
 30
 0
 40
0.59800
 50
0.00000
 51
180.00000
  0
LINE
  8
Gravur
 62
   254
 39
0.400
  6
CONTINUOUS
 10
154.65300
 20
106.76700
 30
 0
 11
154.65300
 21
105.20300
  0
ARC
  8
Gravur
 62
   254
 39
0.400
  6
CONTINUOUS
 10
155.25100
 20
105.20300
 30
 0
 40
0.59800
 50
180.00000
 51
360.00000
  0
ARC
  8
Gravur
 62
   254
 39
0.400
  6
CONTINUOUS
 10
157.25200
 20
105.22600
 30
 0
 40
0.62100
 50
180.00000
 51
360.00000
  0
LINE
  8
Gravur
 62
   254
 39
0.400
  6
CONTINUOUS
 10
157.87300
 20
105.22600
 30
 0
 11
157.87300
 21
106.74400
  0
ARC
  8
Gravur
 62
   254
 39
0.400
  6
CONTINUOUS
 10
157.25200
 20
106.74400
 30
 0
 40
0.62100
 50
0.00000
 51
180.00000
  0
LINE
  8
Gravur
 62
   254
 39
0.400
  6
CONTINUOUS
 10
156.63100
 20
106.74400
 30
 0
 11
156.63100
 21
105.22600
  0
LINE
  8
Gravur
 62
   254
 39
0.400
  6
CONTINUOUS
 10
158.63200
 20
104.32900
 30
 0
 11
159.20700
 21
105.98500
  0
LINE
  8
Gravur
 62
   254
 39
0.400
  6
CONTINUOUS
 10
159.20700
 20
105.98500
 30
 0
 11
159.80500
 21
107.64100
  0
LINE
  8
Gravur
 62
   254
 39
0.400
  6
CONTINUOUS
 10
160.56400
 20
107.36500
 30
 0
 11
160.56400
 21
104.60500
  0
LINE
  8
Gravur
 62
   254
 39
0.400
  6
CONTINUOUS
 10
160.56400
 20
104.60500
 30
 0
 11
161.46100
 21
104.60500
  0
LINE
  8
Gravur
 62
   254
 39
0.400
  6
CONTINUOUS
 10
163.34700
 20
107.36500
 30
 0
 11
162.24300
 21
107.36500
  0
LINE
  8
Gravur
 62
   254
 39
0.400
  6
CONTINUOUS
 10
162.24300
 20
107.36500
 30
 0
 11
162.24300
 21
104.60500
  0
LINE
  8
Gravur
 62
   254
 39
0.400
  6
CONTINUOUS
 10
162.24300
 20
104.60500
 30
 0
 11
162.24300
 21
105.98500
  0
LINE
  8
Gravur
 62
   254
 39
0.400
  6
CONTINUOUS
 10
162.24300
 20
105.98500
 30
 0
 11
162.93300
 21
105.98500
  0
ARC
  8
Gravur
 62
   254
 39
0.400
  6
CONTINUOUS
 10
164.75000
 20
105.22600
 30
 0
 40
0.62100
 50
180.00000
 51
360.00000
  0
LINE
  8
Gravur
 62
   254
 39
0.400
  6
CONTINUOUS
 10
165.37100
 20
105.22600
 30
 0
 11
165.37100
 21
106.74400
  0
ARC
  8
Gravur
 62
   254
 39
0.400
  6
CONTINUOUS
 10
164.75000
 20
106.74400
 30
 0
 40
0.62100
 50
0.00000
 51
180.00000
  0
LINE
  8
Gravur
 62
   254
 39
0.400
  6
CONTINUOUS
 10
164.12900
 20
106.74400
 30
 0
 11
164.12900
 21
105.22600
  0
LINE
  8
Gravur
 62
   254
 39
0.600
  6
CONTINUOUS
 10
99.00000
 20
69.75000
 30
 0
 11
99.00000
 21
62.19000
  0
ARC
  8
Gravur
 62
   254
 39
0.400
  6
CONTINUOUS
 10
91.80100
 20
77.29500
 30
 0
 40
0.69000
 50
180.00000
 51
360.00000
  0
ARC
  8
Gravur
 62
   254
 39
0.400
  6
CONTINUOUS
 10
91.80500
 20
77.29900
 30
 0
 40
0.68600
 50
-0.33408
 51
90.33408
  0
ARC
  8
Gravur
 62
   254
 39
0.400
  6
CONTINUOUS
 10
91.80100
 20
78.67500
 30
 0
 40
0.69000
 50
90.00000
 51
-90.00000
  0
ARC
  8
Gravur
 62
   254
 39
0.400
  6
CONTINUOUS
 10
91.80500
 20
78.67900
 30
 0
 40
0.68600
 50
359.66592
 51
90.33408
  0
LINE
  8
Gravur
 62
   254
 39
0.400
  6
CONTINUOUS
 10
93.27300
 20
79.36500
 30
 0
 11
93.27300
 21
76.60500
  0
LINE
  8
Gravur
 62
   254
 39
0.400
  6
CONTINUOUS
 10
94.05500
 20
76.60500
 30
 0
 11
94.05500
 21
79.36500
  0
LINE
  8
Gravur
 62
   254
 39
0.400
  6
CONTINUOUS
 10
94.05500
 20
79.36500
 30
 0
 11
95.29700
 21
76.60500
  0
LINE
  8
Gravur
 62
   254
 39
0.400
  6
CONTINUOUS
 10
95.29700
 20
76.60500
 30
 0
 11
95.29700
 21
79.36500
  0
LINE
  8
Gravur
 62
   254
 39
0.400
  6
CONTINUOUS
 10
98.26400
 20
79.36500
 30
 0
 11
98.26400
 21
76.60500
  0
LINE
  8
Gravur
 62
   254
 39
0.400
  6
CONTINUOUS
 10
98.26400
 20
76.60500
 30
 0
 11
99.16100
 21
76.60500
  0
LINE
  8
Gravur
 62
   254
 39
0.400
  6
CONTINUOUS
 10
101.18500
 20
79.36500
 30
 0
 11
99.94300
 21
79.36500
  0
LINE
  8
Gravur
 62
   254
 39
0.400
  6
CONTINUOUS
 10
99.94300
 20
79.36500
 30
 0
 11
99.94300
 21
76.60500
  0
LINE
  8
Gravur
 62
   254
 39
0.400
  6
CONTINUOUS
 10
99.94300
 20
76.60500
 30
 0
 11
101.18500
 21
76.60500
  0
LINE
  8
Gravur
 62
   254
 39
0.400
  6
CONTINUOUS
 10
99.94300
 20
77.98500
 30
 0
 11
100.97800
 21
77.98500
  0
LINE
  8
Gravur
 62
   254
 39
0.400
  6
CONTINUOUS
 10
101.96700
 20
79.36500
 30
 0
 11
102.58800
 21
76.60500
  0
LINE
  8
Gravur
 62
   254
 39
0.400
  6
CONTINUOUS
 10
102.58800
 20
76.60500
 30
 0
 11
103.20900
 21
79.36500
  0
LINE
  8
Gravur
 62
   254
 39
0.400
  6
CONTINUOUS
 10
105.23300
 20
79.36500
 30
 0
 11
103.99100
 21
79.36500
  0
LINE
  8
Gravur
 62
   254
 39
0.400
  6
CONTINUOUS
 10
103.99100
 20
79.36500
 30
 0
 11
103.99100
 21
76.60500
  0
LINE
  8
Gravur
 62
   254
 39
0.400
  6
CONTINUOUS
 10
103.99100
 20
76.60500
 30
 0
 11
105.23300
 21
76.60500
  0
LINE
  8
Gravur
 62
   254
 39
0.400
  6
CONTINUOUS
 10
103.99100
 20
77.98500
 30
 0
 11
105.02600
 21
77.98500
  0
LINE
  8
Gravur
 62
   254
 39
0.400
  6
CONTINUOUS
 10
105.99200
 20
79.36500
 30
 0
 11
105.99200
 21
76.60500
  0
LINE
  8
Gravur
 62
   254
 39
0.400
  6
CONTINUOUS
 10
105.99200
 20
76.60500
 30
 0
 11
106.88900
 21
76.60500
  0
LINE
  8
Gravur
 62
   254
 39
0.600
  6
CONTINUOUS
 10
63.00000
 20
69.75000
 30
 0
 11
63.00000
 21
62.19000
  0
LINE
  8
Gravur
 62
   254
 39
0.400
  6
CONTINUOUS
 10
55.15700
 20
79.36500
 30
 0
 11
56.39900
 21
79.36500
  0
LINE
  8
Gravur
 62
   254
 39
0.400
  6
CONTINUOUS
 10
56.39900
 20
79.36500
 30
 0
 11
55.77800
 21
79.36500
  0
LINE
  8
Gravur
 62
   254
 39
0.400
  6
CONTINUOUS
 10
55.77800
 20
79.36500
 30
 0
 11
55.77800
 21
76.60500
  0
LINE
  8
Gravur
 62
   254
 39
0.400
  6
CONTINUOUS
 10
57.15800
 20
76.60500
 30
 0
 11
57.15800
 21
79.36500
  0
LINE
  8
Gravur
 62
   254
 39
0.400
  6
CONTINUOUS
 10
57.15800
 20
79.36500
 30
 0
 11
57.77900
 21
79.36500
  0
ARC
  8
Gravur
 62
   254
 39
0.400
  6
CONTINUOUS
 10
57.77900
 20
78.67500
 30
 0
 40
0.69000
 50
270.00000
 51
90.00000
  0
LINE
  8
Gravur
 62
   254
 39
0.400
  6
CONTINUOUS
 10
57.77900
 20
77.98500
 30
 0
 11
57.15800
 21
77.98500
  0
LINE
  8
Gravur
 62
   254
 39
0.400
  6
CONTINUOUS
 10
57.15800
 20
77.98500
 30
 0
 11
57.77900
 21
77.98500
  0
LINE
  8
Gravur
 62
   254
 39
0.400
  6
CONTINUOUS
 10
57.77900
 20
77.98500
 30
 0
 11
58.46900
 21
76.60500
  0
LINE
  8
Gravur
 62
   254
 39
0.400
  6
CONTINUOUS
 10
59.25100
 20
79.36500
 30
 0
 11
59.25100
 21
76.60500
  0
LINE
  8
Gravur
 62
   254
 39
0.400
  6
CONTINUOUS
 10
62.21800
 20
79.36500
 30
 0
 11
62.21800
 21
76.60500
  0
LINE
  8
Gravur
 62
   254
 39
0.400
  6
CONTINUOUS
 10
62.21800
 20
76.60500
 30
 0
 11
63.11500
 21
76.60500
  0
LINE
  8
Gravur
 62
   254
 39
0.400
  6
CONTINUOUS
 10
65.13900
 20
79.36500
 30
 0
 11
63.89700
 21
79.36500
  0
LINE
  8
Gravur
 62
   254
 39
0.400
  6
CONTINUOUS
 10
63.89700
 20
79.36500
 30
 0
 11
63.89700
 21
76.60500
  0
LINE
  8
Gravur
 62
   254
 39
0.400
  6
CONTINUOUS
 10
63.89700
 20
76.60500
 30
 0
 11
65.13900
 21
76.60500
  0
LINE
  8
Gravur
 62
   254
 39
0.400
  6
CONTINUOUS
 10
63.89700
 20
77.98500
 30
 0
 11
64.93200
 21
77.98500
  0
LINE
  8
Gravur
 62
   254
 39
0.400
  6
CONTINUOUS
 10
65.92100
 20
79.36500
 30
 0
 11
66.54200
 21
76.60500
  0
LINE
  8
Gravur
 62
   254
 39
0.400
  6
CONTINUOUS
 10
66.54200
 20
76.60500
 30
 0
 11
67.16300
 21
79.36500
  0
LINE
  8
Gravur
 62
   254
 39
0.400
  6
CONTINUOUS
 10
69.18700
 20
79.36500
 30
 0
 11
67.94500
 21
79.36500
  0
LINE
  8
Gravur
 62
   254
 39
0.400
  6
CONTINUOUS
 10
67.94500
 20
79.36500
 30
 0
 11
67.94500
 21
76.60500
  0
LINE
  8
Gravur
 62
   254
 39
0.400
  6
CONTINUOUS
 10
67.94500
 20
76.60500
 30
 0
 11
69.18700
 21
76.60500
  0
LINE
  8
Gravur
 62
   254
 39
0.400
  6
CONTINUOUS
 10
67.94500
 20
77.98500
 30
 0
 11
68.98000
 21
77.98500
  0
LINE
  8
Gravur
 62
   254
 39
0.400
  6
CONTINUOUS
 10
69.94600
 20
79.36500
 30
 0
 11
69.94600
 21
76.60500
  0
LINE
  8
Gravur
 62
   254
 39
0.400
  6
CONTINUOUS
 10
69.94600
 20
76.60500
 30
 0
 11
70.84300
 21
76.60500
  0
LINE
  8
Gravur
 62
   254
 39
0.600
  6
CONTINUOUS
 10
132.00000
 20
69.75000
 30
 0
 11
132.00000
 21
62.19000
  0
LINE
  8
Gravur
 62
   254
 39
0.400
  6
CONTINUOUS
 10
121.61600
 20
77.98500
 30
 0
 11
122.23700
 21
77.98500
  0
ARC
  8
Gravur
 62
   254
 39
0.400
  6
CONTINUOUS
 10
122.23700
 20
78.67500
 30
 0
 40
0.69000
 50
-90.00000
 51
90.00000
  0
LINE
  8
Gravur
 62
   254
 39
0.400
  6
CONTINUOUS
 10
122.23700
 20
79.36500
 30
 0
 11
121.61600
 21
79.36500
  0
LINE
  8
Gravur
 62
   254
 39
0.400
  6
CONTINUOUS
 10
121.61600
 20
79.36500
 30
 0
 11
121.61600
 21
76.60500
  0
LINE
  8
Gravur
 62
   254
 39
0.400
  6
CONTINUOUS
 10
123.70900
 20
79.36500
 30
 0
 11
123.70900
 21
77.22600
  0
ARC
  8
Gravur
 62
   254
 39
0.400
  6
CONTINUOUS
 10
124.33000
 20
77.22600
 30
 0
 40
0.62100
 50
180.00000
 51
360.00000
  0
LINE
  8
Gravur
 62
   254
 39
0.400
  6
CONTINUOUS
 10
124.95100
 20
77.22600
 30
 0
 11
124.95100
 21
79.36500
  0
LINE
  8
Gravur
 62
   254
 39
0.400
  6
CONTINUOUS
 10
125.71000
 20
79.36500
 30
 0
 11
125.71000
 21
76.60500
  0
LINE
  8
Gravur
 62
   254
 39
0.400
  6
CONTINUOUS
 10
125.71000
 20
76.60500
 30
 0
 11
126.60700
 21
76.60500
  0
ARC
  8
Gravur
 62
   254
 39
0.400
  6
CONTINUOUS
 10
128.07900
 20
77.29500
 30
 0
 40
0.69000
 50
180.00000
 51
360.00000
  0
ARC
  8
Gravur
 62
   254
 39
0.400
  6
CONTINUOUS
 10
128.08300
 20
77.29900
 30
 0
 40
0.68600
 50
-0.33408
 51
90.33408
  0
ARC
  8
Gravur
 62
   254
 39
0.400
  6
CONTINUOUS
 10
128.07900
 20
78.67500
 30
 0
 40
0.69000
 50
90.00000
 51
-90.00000
  0
ARC
  8
Gravur
 62
   254
 39
0.400
  6
CONTINUOUS
 10
128.08300
 20
78.67900
 30
 0
 40
0.68600
 50
359.66592
 51
90.33408
  0
LINE
  8
Gravur
 62
   254
 39
0.400
  6
CONTINUOUS
 10
130.79300
 20
79.36500
 30
 0
 11
129.55100
 21
79.36500
  0
LINE
  8
Gravur
 62
   254
 39
0.400
  6
CONTINUOUS
 10
129.55100
 20
79.36500
 30
 0
 11
129.55100
 21
76.60500
  0
LINE
  8
Gravur
 62
   254
 39
0.400
  6
CONTINUOUS
 10
129.55100
 20
76.60500
 30
 0
 11
130.79300
 21
76.60500
  0
LINE
  8
Gravur
 62
   254
 39
0.400
  6
CONTINUOUS
 10
129.55100
 20
77.98500
 30
 0
 11
130.58600
 21
77.98500
  0
LINE
  8
Gravur
 62
   254
 39
0.400
  6
CONTINUOUS
 10
133.76000
 20
79.36500
 30
 0
 11
133.76000
 21
76.60500
  0
LINE
  8
Gravur
 62
   254
 39
0.400
  6
CONTINUOUS
 10
133.76000
 20
76.60500
 30
 0
 11
134.65700
 21
76.60500
  0
LINE
  8
Gravur
 62
   254
 39
0.400
  6
CONTINUOUS
 10
136.68100
 20
79.36500
 30
 0
 11
135.43900
 21
79.36500
  0
LINE
  8
Gravur
 62
   254
 39
0.400
  6
CONTINUOUS
 10
135.43900
 20
79.36500
 30
 0
 11
135.43900
 21
76.60500
  0
LINE
  8
Gravur
 62
   254
 39
0.400
  6
CONTINUOUS
 10
135.43900
 20
76.60500
 30
 0
 11
136.68100
 21
76.60500
  0
LINE
  8
Gravur
 62
   254
 39
0.400
  6
CONTINUOUS
 10
135.43900
 20
77.98500
 30
 0
 11
136.47400
 21
77.98500
  0
LINE
  8
Gravur
 62
   254
 39
0.400
  6
CONTINUOUS
 10
137.46300
 20
79.36500
 30
 0
 11
138.08400
 21
76.60500
  0
LINE
  8
Gravur
 62
   254
 39
0.400
  6
CONTINUOUS
 10
138.08400
 20
76.60500
 30
 0
 11
138.70500
 21
79.36500
  0
LINE
  8
Gravur
 62
   254
 39
0.400
  6
CONTINUOUS
 10
140.72900
 20
79.36500
 30
 0
 11
139.48700
 21
79.36500
  0
LINE
  8
Gravur
 62
   254
 39
0.400
  6
CONTINUOUS
 10
139.48700
 20
79.36500
 30
 0
 11
139.48700
 21
76.60500
  0
LINE
  8
Gravur
 62
   254
 39
0.400
  6
CONTINUOUS
 10
139.48700
 20
76.60500
 30
 0
 11
140.72900
 21
76.60500
  0
LINE
  8
Gravur
 62
   254
 39
0.400
  6
CONTINUOUS
 10
139.48700
 20
77.98500
 30
 0
 11
140.52200
 21
77.98500
  0
LINE
  8
Gravur
 62
   254
 39
0.400
  6
CONTINUOUS
 10
141.48800
 20
79.36500
 30
 0
 11
141.48800
 21
76.60500
  0
LINE
  8
Gravur
 62
   254
 39
0.400
  6
CONTINUOUS
 10
141.48800
 20
76.60500
 30
 0
 11
142.38500
 21
76.60500
  0
LINE
  8
Gravur
 62
   254
 39
0.600
  6
CONTINUOUS
 10
22.00000
 20
69.75000
 30
 0
 11
22.00000
 21
62.19000
  0
ARC
  8
Gravur
 62
   254
 39
0.400
  6
CONTINUOUS
 10
13.35200
 20
77.29500
 30
 0
 40
0.69000
 50
180.00000
 51
360.00000
  0
ARC
  8
Gravur
 62
   254
 39
0.400
  6
CONTINUOUS
 10
13.35600
 20
77.29900
 30
 0
 40
0.68600
 50
-0.33408
 51
90.33408
  0
ARC
  8
Gravur
 62
   254
 39
0.400
  6
CONTINUOUS
 10
13.35200
 20
78.67500
 30
 0
 40
0.69000
 50
90.00000
 51
-90.00000
  0
ARC
  8
Gravur
 62
   254
 39
0.400
  6
CONTINUOUS
 10
13.35600
 20
78.67900
 30
 0
 40
0.68600
 50
359.66592
 51
90.33408
  0
LINE
  8
Gravur
 62
   254
 39
0.400
  6
CONTINUOUS
 10
14.82400
 20
76.60500
 30
 0
 11
15.65200
 21
79.36500
  0
LINE
  8
Gravur
 62
   254
 39
0.400
  6
CONTINUOUS
 10
15.65200
 20
79.36500
 30
 0
 11
16.48000
 21
76.60500
  0
LINE
  8
Gravur
 62
   254
 39
0.400
  6
CONTINUOUS
 10
15.10000
 20
77.43300
 30
 0
 11
16.20400
 21
77.43300
  0
LINE
  8
Gravur
 62
   254
 39
0.400
  6
CONTINUOUS
 10
17.26200
 20
79.36500
 30
 0
 11
17.88300
 21
76.60500
  0
LINE
  8
Gravur
 62
   254
 39
0.400
  6
CONTINUOUS
 10
17.88300
 20
76.60500
 30
 0
 11
18.50400
 21
79.36500
  0
LINE
  8
Gravur
 62
   254
 39
0.400
  6
CONTINUOUS
 10
18.50400
 20
79.36500
 30
 0
 11
19.12500
 21
76.60500
  0
LINE
  8
Gravur
 62
   254
 39
0.400
  6
CONTINUOUS
 10
19.12500
 20
76.60500
 30
 0
 11
19.74600
 21
79.36500
  0
LINE
  8
Gravur
 62
   254
 39
0.400
  6
CONTINUOUS
 10
22.71300
 20
79.36500
 30
 0
 11
22.71300
 21
76.60500
  0
LINE
  8
Gravur
 62
   254
 39
0.400
  6
CONTINUOUS
 10
22.71300
 20
76.60500
 30
 0
 11
23.61000
 21
76.60500
  0
LINE
  8
Gravur
 62
   254
 39
0.400
  6
CONTINUOUS
 10
25.63400
 20
79.36500
 30
 0
 11
24.39200
 21
79.36500
  0
LINE
  8
Gravur
 62
   254
 39
0.400
  6
CONTINUOUS
 10
24.39200
 20
79.36500
 30
 0
 11
24.39200
 21
76.60500
  0
LINE
  8
Gravur
 62
   254
 39
0.400
  6
CONTINUOUS
 10
24.39200
 20
76.60500
 30
 0
 11
25.63400
 21
76.60500
  0
LINE
  8
Gravur
 62
   254
 39
0.400
  6
CONTINUOUS
 10
24.39200
 20
77.98500
 30
 0
 11
25.42700
 21
77.98500
  0
LINE
  8
Gravur
 62
   254
 39
0.400
  6
CONTINUOUS
 10
26.41600
 20
79.36500
 30
 0
 11
27.03700
 21
76.60500
  0
LINE
  8
Gravur
 62
   254
 39
0.400
  6
CONTINUOUS
 10
27.03700
 20
76.60500
 30
 0
 11
27.65800
 21
79.36500
  0
LINE
  8
Gravur
 62
   254
 39
0.400
  6
CONTINUOUS
 10
29.68200
 20
79.36500
 30
 0
 11
28.44000
 21
79.36500
  0
LINE
  8
Gravur
 62
   254
 39
0.400
  6
CONTINUOUS
 10
28.44000
 20
79.36500
 30
 0
 11
28.44000
 21
76.60500
  0
LINE
  8
Gravur
 62
   254
 39
0.400
  6
CONTINUOUS
 10
28.44000
 20
76.60500
 30
 0
 11
29.68200
 21
76.60500
  0
LINE
  8
Gravur
 62
   254
 39
0.400
  6
CONTINUOUS
 10
28.44000
 20
77.98500
 30
 0
 11
29.47500
 21
77.98500
  0
LINE
  8
Gravur
 62
   254
 39
0.400
  6
CONTINUOUS
 10
30.44100
 20
79.36500
 30
 0
 11
30.44100
 21
76.60500
  0
LINE
  8
Gravur
 62
   254
 39
0.400
  6
CONTINUOUS
 10
30.44100
 20
76.60500
 30
 0
 11
31.33800
 21
76.60500
  0
LINE
  8
Gravur
 62
   254
 39
0.400
  6
CONTINUOUS
 10
149.42400
 20
107.34700
 30
 0
 11
149.42400
 21
88.05300
  0
LINE
  8
Gravur
 62
   254
 39
0.400
  6
CONTINUOUS
 10
11.01800
 20
159.36500
 30
 0
 11
11.01800
 21
156.60500
  0
LINE
  8
Gravur
 62
   254
 39
0.400
  6
CONTINUOUS
 10
11.01800
 20
156.60500
 30
 0
 11
11.91500
 21
156.60500
  0
LINE
  8
Gravur
 62
   254
 39
0.400
  6
CONTINUOUS
 10
12.69700
 20
159.36500
 30
 0
 11
12.69700
 21
156.60500
  0
LINE
  8
Gravur
 62
   254
 39
0.400
  6
CONTINUOUS
 10
13.47900
 20
156.60500
 30
 0
 11
13.47900
 21
159.36500
  0
LINE
  8
Gravur
 62
   254
 39
0.400
  6
CONTINUOUS
 10
13.47900
 20
159.36500
 30
 0
 11
14.72100
 21
156.60500
  0
LINE
  8
Gravur
 62
   254
 39
0.400
  6
CONTINUOUS
 10
14.72100
 20
156.60500
 30
 0
 11
14.72100
 21
159.36500
  0
LINE
  8
Gravur
 62
   254
 39
0.400
  6
CONTINUOUS
 10
18.81500
 20
159.36500
 30
 0
 11
17.71100
 21
159.36500
  0
LINE
  8
Gravur
 62
   254
 39
0.400
  6
CONTINUOUS
 10
17.71100
 20
159.36500
 30
 0
 11
17.71100
 21
156.60500
  0
LINE
  8
Gravur
 62
   254
 39
0.400
  6
CONTINUOUS
 10
17.71100
 20
156.60500
 30
 0
 11
17.71100
 21
157.98500
  0
LINE
  8
Gravur
 62
   254
 39
0.400
  6
CONTINUOUS
 10
17.71100
 20
157.98500
 30
 0
 11
18.40100
 21
157.98500
  0
LINE
  8
Gravur
 62
   254
 39
0.400
  6
CONTINUOUS
 10
19.59700
 20
156.60500
 30
 0
 11
19.59700
 21
159.36500
  0
LINE
  8
Gravur
 62
   254
 39
0.400
  6
CONTINUOUS
 10
19.59700
 20
159.36500
 30
 0
 11
20.49400
 21
157.43300
  0
LINE
  8
Gravur
 62
   254
 39
0.400
  6
CONTINUOUS
 10
20.49400
 20
157.43300
 30
 0
 11
21.39100
 21
159.36500
  0
LINE
  8
Gravur
 62
   254
 39
0.400
  6
CONTINUOUS
 10
21.39100
 20
159.36500
 30
 0
 11
21.39100
 21
156.60500
  0
LINE
  8
Gravur
 62
   254
 39
0.400
  6
CONTINUOUS
 10
24.35800
 20
159.36500
 30
 0
 11
24.35800
 21
156.60500
  0
LINE
  8
Gravur
 62
   254
 39
0.400
  6
CONTINUOUS
 10
24.35800
 20
156.60500
 30
 0
 11
25.25500
 21
156.60500
  0
LINE
  8
Gravur
 62
   254
 39
0.400
  6
CONTINUOUS
 10
27.27900
 20
159.36500
 30
 0
 11
26.03700
 21
159.36500
  0
LINE
  8
Gravur
 62
   254
 39
0.400
  6
CONTINUOUS
 10
26.03700
 20
159.36500
 30
 0
 11
26.03700
 21
156.60500
  0
LINE
  8
Gravur
 62
   254
 39
0.400
  6
CONTINUOUS
 10
26.03700
 20
156.60500
 30
 0
 11
27.27900
 21
156.60500
  0
LINE
  8
Gravur
 62
   254
 39
0.400
  6
CONTINUOUS
 10
26.03700
 20
157.98500
 30
 0
 11
27.07200
 21
157.98500
  0
LINE
  8
Gravur
 62
   254
 39
0.400
  6
CONTINUOUS
 10
28.06100
 20
159.36500
 30
 0
 11
28.68200
 21
156.60500
  0
LINE
  8
Gravur
 62
   254
 39
0.400
  6
CONTINUOUS
 10
28.68200
 20
156.60500
 30
 0
 11
29.30300
 21
159.36500
  0
LINE
  8
Gravur
 62
   254
 39
0.400
  6
CONTINUOUS
 10
31.32700
 20
159.36500
 30
 0
 11
30.08500
 21
159.36500
  0
LINE
  8
Gravur
 62
   254
 39
0.400
  6
CONTINUOUS
 10
30.08500
 20
159.36500
 30
 0
 11
30.08500
 21
156.60500
  0
LINE
  8
Gravur
 62
   254
 39
0.400
  6
CONTINUOUS
 10
30.08500
 20
156.60500
 30
 0
 11
31.32700
 21
156.60500
  0
LINE
  8
Gravur
 62
   254
 39
0.400
  6
CONTINUOUS
 10
30.08500
 20
157.98500
 30
 0
 11
31.12000
 21
157.98500
  0
LINE
  8
Gravur
 62
   254
 39
0.400
  6
CONTINUOUS
 10
32.08600
 20
159.36500
 30
 0
 11
32.08600
 21
156.60500
  0
LINE
  8
Gravur
 62
   254
 39
0.400
  6
CONTINUOUS
 10
32.08600
 20
156.60500
 30
 0
 11
32.98300
 21
156.60500
  0
LINE
  8
Gravur
 62
   254
 39
0.600
  6
CONTINUOUS
 10
22.00000
 20
146.75000
 30
 0
 11
22.00000
 21
139.19000
  0
LINE
  8
Gravur
 62
   254
 39
0.400
  6
CONTINUOUS
 10
152.56000
 20
76.60500
 30
 0
 11
152.56000
 21
79.36500
  0
LINE
  8
Gravur
 62
   254
 39
0.400
  6
CONTINUOUS
 10
152.56000
 20
79.36500
 30
 0
 11
153.45700
 21
77.43300
  0
LINE
  8
Gravur
 62
   254
 39
0.400
  6
CONTINUOUS
 10
153.45700
 20
77.43300
 30
 0
 11
154.35400
 21
79.36500
  0
LINE
  8
Gravur
 62
   254
 39
0.400
  6
CONTINUOUS
 10
154.35400
 20
79.36500
 30
 0
 11
154.35400
 21
76.60500
  0
LINE
  8
Gravur
 62
   254
 39
0.400
  6
CONTINUOUS
 10
155.13600
 20
79.36500
 30
 0
 11
155.13600
 21
76.60500
  0
LINE
  8
Gravur
 62
   254
 39
0.400
  6
CONTINUOUS
 10
155.91800
 20
79.36500
 30
 0
 11
157.16000
 21
76.60500
  0
LINE
  8
Gravur
 62
   254
 39
0.400
  6
CONTINUOUS
 10
155.91800
 20
76.60500
 30
 0
 11
157.16000
 21
79.36500
  0
ARC
  8
Gravur
 62
   254
 39
0.400
  6
CONTINUOUS
 10
160.77100
 20
77.22600
 30
 0
 40
0.62100
 50
180.00000
 51
360.00000
  0
LINE
  8
Gravur
 62
   254
 39
0.400
  6
CONTINUOUS
 10
161.39200
 20
77.22600
 30
 0
 11
161.39200
 21
78.74400
  0
ARC
  8
Gravur
 62
   254
 39
0.400
  6
CONTINUOUS
 10
160.77100
 20
78.74400
 30
 0
 40
0.62100
 50
0.00000
 51
180.00000
  0
LINE
  8
Gravur
 62
   254
 39
0.400
  6
CONTINUOUS
 10
160.15000
 20
78.74400
 30
 0
 11
160.15000
 21
77.22600
  0
LINE
  8
Gravur
 62
   254
 39
0.400
  6
CONTINUOUS
 10
162.17400
 20
79.36500
 30
 0
 11
162.17400
 21
77.22600
  0
ARC
  8
Gravur
 62
   254
 39
0.400
  6
CONTINUOUS
 10
162.79500
 20
77.22600
 30
 0
 40
0.62100
 50
180.00000
 51
360.00000
  0
LINE
  8
Gravur
 62
   254
 39
0.400
  6
CONTINUOUS
 10
163.41600
 20
77.22600
 30
 0
 11
163.41600
 21
79.36500
  0
LINE
  8
Gravur
 62
   254
 39
0.400
  6
CONTINUOUS
 10
164.19800
 20
79.36500
 30
 0
 11
165.44000
 21
79.36500
  0
LINE
  8
Gravur
 62
   254
 39
0.400
  6
CONTINUOUS
 10
165.44000
 20
79.36500
 30
 0
 11
164.81900
 21
79.36500
  0
LINE
  8
Gravur
 62
   254
 39
0.400
  6
CONTINUOUS
 10
164.81900
 20
79.36500
 30
 0
 11
164.81900
 21
76.60500
  0
LINE
  8
Gravur
 62
   254
 39
0.400
  6
CONTINUOUS
 10
18.75700
 20
107.36500
 30
 0
 11
17.65300
 21
107.36500
  0
LINE
  8
Gravur
 62
   254
 39
0.400
  6
CONTINUOUS
 10
17.65300
 20
107.36500
 30
 0
 11
17.65300
 21
104.60500
  0
LINE
  8
Gravur
 62
   254
 39
0.400
  6
CONTINUOUS
 10
17.65300
 20
104.60500
 30
 0
 11
17.65300
 21
105.98500
  0
LINE
  8
Gravur
 62
   254
 39
0.400
  6
CONTINUOUS
 10
17.65300
 20
105.98500
 30
 0
 11
18.34300
 21
105.98500
  0
LINE
  8
Gravur
 62
   254
 39
0.400
  6
CONTINUOUS
 10
19.53900
 20
104.60500
 30
 0
 11
19.53900
 21
107.36500
  0
LINE
  8
Gravur
 62
   254
 39
0.400
  6
CONTINUOUS
 10
19.53900
 20
107.36500
 30
 0
 11
20.43600
 21
105.43300
  0
LINE
  8
Gravur
 62
   254
 39
0.400
  6
CONTINUOUS
 10
20.43600
 20
105.43300
 30
 0
 11
21.33300
 21
107.36500
  0
LINE
  8
Gravur
 62
   254
 39
0.400
  6
CONTINUOUS
 10
21.33300
 20
107.36500
 30
 0
 11
21.33300
 21
104.60500
  0
LINE
  8
Gravur
 62
   254
 39
0.400
  6
CONTINUOUS
 10
24.32300
 20
107.36500
 30
 0
 11
24.32300
 21
104.60500
  0
LINE
  8
Gravur
 62
   254
 39
0.400
  6
CONTINUOUS
 10
25.10500
 20
104.60500
 30
 0
 11
25.10500
 21
107.36500
  0
LINE
  8
Gravur
 62
   254
 39
0.400
  6
CONTINUOUS
 10
25.10500
 20
107.36500
 30
 0
 11
26.34700
 21
104.60500
  0
LINE
  8
Gravur
 62
   254
 39
0.400
  6
CONTINUOUS
 10
26.34700
 20
104.60500
 30
 0
 11
26.34700
 21
107.36500
  0
ARC
  8
Gravur
 62
   254
 39
0.400
  6
CONTINUOUS
 10
128.98700
 20
105.29500
 30
 0
 40
0.69000
 50
180.00000
 51
360.00000
  0
ARC
  8
Gravur
 62
   254
 39
0.400
  6
CONTINUOUS
 10
128.99100
 20
105.29900
 30
 0
 40
0.68600
 50
-0.33408
 51
90.33408
  0
ARC
  8
Gravur
 62
   254
 39
0.400
  6
CONTINUOUS
 10
128.98700
 20
106.67500
 30
 0
 40
0.69000
 50
90.00000
 51
-90.00000
  0
ARC
  8
Gravur
 62
   254
 39
0.400
  6
CONTINUOUS
 10
128.99100
 20
106.67900
 30
 0
 40
0.68600
 50
359.66592
 51
90.33408
  0
LINE
  8
Gravur
 62
   254
 39
0.400
  6
CONTINUOUS
 10
130.45900
 20
107.36500
 30
 0
 11
131.08000
 21
105.64000
  0
LINE
  8
Gravur
 62
   254
 39
0.400
  6
CONTINUOUS
 10
131.08000
 20
105.64000
 30
 0
 11
131.08000
 21
104.60500
  0
LINE
  8
Gravur
 62
   254
 39
0.400
  6
CONTINUOUS
 10
131.08000
 20
104.60500
 30
 0
 11
131.08000
 21
105.64000
  0
LINE
  8
Gravur
 62
   254
 39
0.400
  6
CONTINUOUS
 10
131.08000
 20
105.64000
 30
 0
 11
131.70100
 21
107.36500
  0
LINE
  8
Gravur
 62
   254
 39
0.400
  6
CONTINUOUS
 10
132.48300
 20
104.60500
 30
 0
 11
132.48300
 21
107.36500
  0
LINE
  8
Gravur
 62
   254
 39
0.400
  6
CONTINUOUS
 10
132.48300
 20
107.36500
 30
 0
 11
133.72500
 21
104.60500
  0
LINE
  8
Gravur
 62
   254
 39
0.400
  6
CONTINUOUS
 10
133.72500
 20
104.60500
 30
 0
 11
133.72500
 21
107.36500
  0
ARC
  8
Gravur
 62
   254
 39
0.400
  6
CONTINUOUS
 10
135.10500
 20
106.76700
 30
 0
 40
0.59800
 50
0.00000
 51
180.00000
  0
LINE
  8
Gravur
 62
   254
 39
0.400
  6
CONTINUOUS
 10
134.50700
 20
106.76700
 30
 0
 11
134.50700
 21
105.20300
  0
ARC
  8
Gravur
 62
   254
 39
0.400
  6
CONTINUOUS
 10
135.10500
 20
105.20300
 30
 0
 40
0.59800
 50
180.00000
 51
360.00000
  0
ARC
  8
Gravur
 62
   254
 39
0.400
  6
CONTINUOUS
 10
112.35900
 20
216.92100
 30
 0
 40
0.59800
 50
0.00000
 51
180.00000
  0
LINE
  8
Gravur
 62
   254
 39
0.400
  6
CONTINUOUS
 10
111.76100
 20
216.92100
 30
 0
 11
111.76100
 21
215.35700
  0
ARC
  8
Gravur
 62
   254
 39
0.400
  6
CONTINUOUS
 10
112.35900
 20
215.35700
 30
 0
 40
0.59800
 50
180.00000
 51
360.00000
  0
LINE
  8
Gravur
 62
   254
 39
0.400
  6
CONTINUOUS
 10
113.73900
 20
217.51900
 30
 0
 11
113.73900
 21
215.38000
  0
ARC
  8
Gravur
 62
   254
 39
0.400
  6
CONTINUOUS
 10
114.36000
 20
215.38000
 30
 0
 40
0.62100
 50
180.00000
 51
360.00000
  0
LINE
  8
Gravur
 62
   254
 39
0.400
  6
CONTINUOUS
 10
114.98100
 20
215.38000
 30
 0
 11
114.98100
 21
217.51900
  0
LINE
  8
Gravur
 62
   254
 39
0.400
  6
CONTINUOUS
 10
115.74000
 20
214.75900
 30
 0
 11
115.74000
 21
217.51900
  0
LINE
  8
Gravur
 62
   254
 39
0.400
  6
CONTINUOUS
 10
115.74000
 20
217.51900
 30
 0
 11
116.36100
 21
217.51900
  0
ARC
  8
Gravur
 62
   254
 39
0.400
  6
CONTINUOUS
 10
116.36100
 20
216.82900
 30
 0
 40
0.69000
 50
270.00000
 51
90.00000
  0
LINE
  8
Gravur
 62
   254
 39
0.400
  6
CONTINUOUS
 10
116.36100
 20
216.13900
 30
 0
 11
115.74000
 21
216.13900
  0
LINE
  8
Gravur
 62
   254
 39
0.400
  6
CONTINUOUS
 10
115.74000
 20
216.13900
 30
 0
 11
116.36100
 21
216.13900
  0
LINE
  8
Gravur
 62
   254
 39
0.400
  6
CONTINUOUS
 10
116.36100
 20
216.13900
 30
 0
 11
117.05100
 21
214.75900
  0
LINE
  8
Gravur
 62
   254
 39
0.400
  6
CONTINUOUS
 10
119.07500
 20
217.51900
 30
 0
 11
117.83300
 21
217.51900
  0
LINE
  8
Gravur
 62
   254
 39
0.400
  6
CONTINUOUS
 10
117.83300
 20
217.51900
 30
 0
 11
117.83300
 21
214.75900
  0
LINE
  8
Gravur
 62
   254
 39
0.400
  6
CONTINUOUS
 10
117.83300
 20
214.75900
 30
 0
 11
119.07500
 21
214.75900
  0
LINE
  8
Gravur
 62
   254
 39
0.400
  6
CONTINUOUS
 10
117.83300
 20
216.13900
 30
 0
 11
118.86800
 21
216.13900
  0
LINE
  8
Gravur
 62
   254
 39
0.400
  6
CONTINUOUS
 10
119.85700
 20
217.51900
 30
 0
 11
121.09900
 21
217.51900
  0
LINE
  8
Gravur
 62
   254
 39
0.400
  6
CONTINUOUS
 10
121.09900
 20
217.51900
 30
 0
 11
120.47800
 21
217.51900
  0
LINE
  8
Gravur
 62
   254
 39
0.400
  6
CONTINUOUS
 10
120.47800
 20
217.51900
 30
 0
 11
120.47800
 21
214.75900
  0
LINE
  8
Gravur
 62
   254
 39
0.400
  6
CONTINUOUS
 10
121.85800
 20
214.75900
 30
 0
 11
121.85800
 21
217.51900
  0
LINE
  8
Gravur
 62
   254
 39
0.400
  6
CONTINUOUS
 10
121.85800
 20
217.51900
 30
 0
 11
122.47900
 21
217.51900
  0
ARC
  8
Gravur
 62
   254
 39
0.400
  6
CONTINUOUS
 10
122.47900
 20
216.82900
 30
 0
 40
0.69000
 50
270.00000
 51
90.00000
  0
LINE
  8
Gravur
 62
   254
 39
0.400
  6
CONTINUOUS
 10
122.47900
 20
216.13900
 30
 0
 11
121.85800
 21
216.13900
  0
LINE
  8
Gravur
 62
   254
 39
0.400
  6
CONTINUOUS
 10
121.85800
 20
216.13900
 30
 0
 11
122.47900
 21
216.13900
  0
LINE
  8
Gravur
 62
   254
 39
0.400
  6
CONTINUOUS
 10
122.47900
 20
216.13900
 30
 0
 11
123.16900
 21
214.75900
  0
ARC
  8
Gravur
 62
   254
 39
0.400
  6
CONTINUOUS
 10
124.57200
 20
215.38000
 30
 0
 40
0.62100
 50
180.00000
 51
360.00000
  0
LINE
  8
Gravur
 62
   254
 39
0.400
  6
CONTINUOUS
 10
125.19300
 20
215.38000
 30
 0
 11
125.19300
 21
216.89800
  0
ARC
  8
Gravur
 62
   254
 39
0.400
  6
CONTINUOUS
 10
124.57200
 20
216.89800
 30
 0
 40
0.62100
 50
0.00000
 51
180.00000
  0
LINE
  8
Gravur
 62
   254
 39
0.400
  6
CONTINUOUS
 10
123.95100
 20
216.89800
 30
 0
 11
123.95100
 21
215.38000
  0
LINE
  8
Gravur
 62
   254
 39
0.400
  6
CONTINUOUS
 10
125.97500
 20
214.75900
 30
 0
 11
125.97500
 21
217.51900
  0
LINE
  8
Gravur
 62
   254
 39
0.400
  6
CONTINUOUS
 10
125.97500
 20
217.51900
 30
 0
 11
127.21700
 21
214.75900
  0
LINE
  8
Gravur
 62
   254
 39
0.400
  6
CONTINUOUS
 10
127.21700
 20
214.75900
 30
 0
 11
127.21700
 21
217.51900
  0
LINE
  8
Gravur
 62
   254
 39
0.400
  6
CONTINUOUS
 10
127.99900
 20
217.51900
 30
 0
 11
127.99900
 21
214.75900
  0
ARC
  8
Gravur
 62
   254
 39
0.400
  6
CONTINUOUS
 10
129.37900
 20
216.92100
 30
 0
 40
0.59800
 50
0.00000
 51
180.00000
  0
LINE
  8
Gravur
 62
   254
 39
0.400
  6
CONTINUOUS
 10
128.78100
 20
216.92100
 30
 0
 11
128.78100
 21
215.35700
  0
ARC
  8
Gravur
 62
   254
 39
0.400
  6
CONTINUOUS
 10
129.37900
 20
215.35700
 30
 0
 40
0.59800
 50
180.00000
 51
360.00000
  0
ARC
  8
Gravur
 62
   254
 39
0.400
  6
CONTINUOUS
 10
131.44900
 20
215.44900
 30
 0
 40
0.69000
 50
180.00000
 51
360.00000
  0
ARC
  8
Gravur
 62
   254
 39
0.400
  6
CONTINUOUS
 10
131.45300
 20
215.45300
 30
 0
 40
0.68600
 50
-0.33408
 51
90.33408
  0
ARC
  8
Gravur
 62
   254
 39
0.400
  6
CONTINUOUS
 10
131.44900
 20
216.82900
 30
 0
 40
0.69000
 50
90.00000
 51
-90.00000
  0
ARC
  8
Gravur
 62
   254
 39
0.400
  6
CONTINUOUS
 10
131.45300
 20
216.83300
 30
 0
 40
0.68600
 50
359.66592
 51
90.33408
  0
LINE
  8
Gravur
 62
   254
 39
0.400
  6
CONTINUOUS
 10
152.83600
 20
33.36500
 30
 0
 11
152.83600
 21
30.60500
  0
LINE
  8
Gravur
 62
   254
 39
0.400
  6
CONTINUOUS
 10
153.61800
 20
30.60500
 30
 0
 11
153.61800
 21
33.36500
  0
LINE
  8
Gravur
 62
   254
 39
0.400
  6
CONTINUOUS
 10
153.61800
 20
33.36500
 30
 0
 11
154.86000
 21
30.60500
  0
LINE
  8
Gravur
 62
   254
 39
0.400
  6
CONTINUOUS
 10
154.86000
 20
30.60500
 30
 0
 11
154.86000
 21
33.36500
  0
LINE
  8
Gravur
 62
   254
 39
0.400
  6
CONTINUOUS
 10
155.64200
 20
33.36500
 30
 0
 11
156.26300
 21
30.60500
  0
LINE
  8
Gravur
 62
   254
 39
0.400
  6
CONTINUOUS
 10
156.26300
 20
30.60500
 30
 0
 11
156.88400
 21
33.36500
  0
ARC
  8
Gravur
 62
   254
 39
0.400
  6
CONTINUOUS
 10
160.49500
 20
31.22600
 30
 0
 40
0.62100
 50
180.00000
 51
360.00000
  0
LINE
  8
Gravur
 62
   254
 39
0.400
  6
CONTINUOUS
 10
161.11600
 20
31.22600
 30
 0
 11
161.11600
 21
32.74400
  0
ARC
  8
Gravur
 62
   254
 39
0.400
  6
CONTINUOUS
 10
160.49500
 20
32.74400
 30
 0
 40
0.62100
 50
0.00000
 51
180.00000
  0
LINE
  8
Gravur
 62
   254
 39
0.400
  6
CONTINUOUS
 10
159.87400
 20
32.74400
 30
 0
 11
159.87400
 21
31.22600
  0
LINE
  8
Gravur
 62
   254
 39
0.400
  6
CONTINUOUS
 10
161.89800
 20
33.36500
 30
 0
 11
161.89800
 21
31.22600
  0
ARC
  8
Gravur
 62
   254
 39
0.400
  6
CONTINUOUS
 10
162.51900
 20
31.22600
 30
 0
 40
0.62100
 50
180.00000
 51
360.00000
  0
LINE
  8
Gravur
 62
   254
 39
0.400
  6
CONTINUOUS
 10
163.14000
 20
31.22600
 30
 0
 11
163.14000
 21
33.36500
  0
LINE
  8
Gravur
 62
   254
 39
0.400
  6
CONTINUOUS
 10
163.92200
 20
33.36500
 30
 0
 11
165.16400
 21
33.36500
  0
LINE
  8
Gravur
 62
   254
 39
0.400
  6
CONTINUOUS
 10
165.16400
 20
33.36500
 30
 0
 11
164.54300
 21
33.36500
  0
LINE
  8
Gravur
 62
   254
 39
0.400
  6
CONTINUOUS
 10
164.54300
 20
33.36500
 30
 0
 11
164.54300
 21
30.60500
  0
ARC
  8
Gravur
 62
   254
 39
0.400
  6
CONTINUOUS
 10
119.73000
 20
157.29500
 30
 0
 40
0.69000
 50
180.00000
 51
360.00000
  0
ARC
  8
Gravur
 62
   254
 39
0.400
  6
CONTINUOUS
 10
119.73400
 20
157.29900
 30
 0
 40
0.68600
 50
-0.33408
 51
90.33408
  0
ARC
  8
Gravur
 62
   254
 39
0.400
  6
CONTINUOUS
 10
119.73000
 20
158.67500
 30
 0
 40
0.69000
 50
90.00000
 51
-90.00000
  0
ARC
  8
Gravur
 62
   254
 39
0.400
  6
CONTINUOUS
 10
119.73400
 20
158.67900
 30
 0
 40
0.68600
 50
359.66592
 51
90.33408
  0
ARC
  8
Gravur
 62
   254
 39
0.400
  6
CONTINUOUS
 10
121.82300
 20
157.22600
 30
 0
 40
0.62100
 50
180.00000
 51
360.00000
  0
LINE
  8
Gravur
 62
   254
 39
0.400
  6
CONTINUOUS
 10
122.44400
 20
157.22600
 30
 0
 11
122.44400
 21
158.74400
  0
ARC
  8
Gravur
 62
   254
 39
0.400
  6
CONTINUOUS
 10
121.82300
 20
158.74400
 30
 0
 40
0.62100
 50
0.00000
 51
180.00000
  0
LINE
  8
Gravur
 62
   254
 39
0.400
  6
CONTINUOUS
 10
121.20200
 20
158.74400
 30
 0
 11
121.20200
 21
157.22600
  0
LINE
  8
Gravur
 62
   254
 39
0.400
  6
CONTINUOUS
 10
124.33000
 20
159.36500
 30
 0
 11
123.22600
 21
159.36500
  0
LINE
  8
Gravur
 62
   254
 39
0.400
  6
CONTINUOUS
 10
123.22600
 20
159.36500
 30
 0
 11
123.22600
 21
156.60500
  0
LINE
  8
Gravur
 62
   254
 39
0.400
  6
CONTINUOUS
 10
123.22600
 20
156.60500
 30
 0
 11
123.22600
 21
157.98500
  0
LINE
  8
Gravur
 62
   254
 39
0.400
  6
CONTINUOUS
 10
123.22600
 20
157.98500
 30
 0
 11
123.91600
 21
157.98500
  0
LINE
  8
Gravur
 62
   254
 39
0.400
  6
CONTINUOUS
 10
125.11200
 20
159.36500
 30
 0
 11
126.35400
 21
159.36500
  0
LINE
  8
Gravur
 62
   254
 39
0.400
  6
CONTINUOUS
 10
126.35400
 20
159.36500
 30
 0
 11
125.73300
 21
159.36500
  0
LINE
  8
Gravur
 62
   254
 39
0.400
  6
CONTINUOUS
 10
125.73300
 20
159.36500
 30
 0
 11
125.73300
 21
156.60500
  0
ARC
  8
Gravur
 62
   254
 39
0.400
  6
CONTINUOUS
 10
130.03400
 20
157.29500
 30
 0
 40
0.69000
 50
180.00000
 51
360.00000
  0
ARC
  8
Gravur
 62
   254
 39
0.400
  6
CONTINUOUS
 10
130.03800
 20
157.29900
 30
 0
 40
0.68600
 50
-0.33408
 51
90.33408
  0
ARC
  8
Gravur
 62
   254
 39
0.400
  6
CONTINUOUS
 10
130.03400
 20
158.67500
 30
 0
 40
0.69000
 50
90.00000
 51
-90.00000
  0
ARC
  8
Gravur
 62
   254
 39
0.400
  6
CONTINUOUS
 10
130.03800
 20
158.67900
 30
 0
 40
0.68600
 50
359.66592
 51
90.33408
  0
LINE
  8
Gravur
 62
   254
 39
0.400
  6
CONTINUOUS
 10
131.50600
 20
159.36500
 30
 0
 11
132.12700
 21
157.64000
  0
LINE
  8
Gravur
 62
   254
 39
0.400
  6
CONTINUOUS
 10
132.12700
 20
157.64000
 30
 0
 11
132.12700
 21
156.60500
  0
LINE
  8
Gravur
 62
   254
 39
0.400
  6
CONTINUOUS
 10
132.12700
 20
156.60500
 30
 0
 11
132.12700
 21
157.64000
  0
LINE
  8
Gravur
 62
   254
 39
0.400
  6
CONTINUOUS
 10
132.12700
 20
157.64000
 30
 0
 11
132.74800
 21
159.36500
  0
LINE
  8
Gravur
 62
   254
 39
0.400
  6
CONTINUOUS
 10
133.53000
 20
156.60500
 30
 0
 11
133.53000
 21
159.36500
  0
LINE
  8
Gravur
 62
   254
 39
0.400
  6
CONTINUOUS
 10
133.53000
 20
159.36500
 30
 0
 11
134.77200
 21
156.60500
  0
LINE
  8
Gravur
 62
   254
 39
0.400
  6
CONTINUOUS
 10
134.77200
 20
156.60500
 30
 0
 11
134.77200
 21
159.36500
  0
ARC
  8
Gravur
 62
   254
 39
0.400
  6
CONTINUOUS
 10
136.15200
 20
158.76700
 30
 0
 40
0.59800
 50
0.00000
 51
180.00000
  0
LINE
  8
Gravur
 62
   254
 39
0.400
  6
CONTINUOUS
 10
135.55400
 20
158.76700
 30
 0
 11
135.55400
 21
157.20300
  0
ARC
  8
Gravur
 62
   254
 39
0.400
  6
CONTINUOUS
 10
136.15200
 20
157.20300
 30
 0
 40
0.59800
 50
180.00000
 51
360.00000
  0
LINE
  8
Gravur
 62
   254
 39
0.400
  6
CONTINUOUS
 10
139.71700
 20
159.36500
 30
 0
 11
139.71700
 21
156.60500
  0
LINE
  8
Gravur
 62
   254
 39
0.400
  6
CONTINUOUS
 10
139.71700
 20
156.60500
 30
 0
 11
140.61400
 21
156.60500
  0
LINE
  8
Gravur
 62
   254
 39
0.400
  6
CONTINUOUS
 10
142.63800
 20
159.36500
 30
 0
 11
141.39600
 21
159.36500
  0
LINE
  8
Gravur
 62
   254
 39
0.400
  6
CONTINUOUS
 10
141.39600
 20
159.36500
 30
 0
 11
141.39600
 21
156.60500
  0
LINE
  8
Gravur
 62
   254
 39
0.400
  6
CONTINUOUS
 10
141.39600
 20
156.60500
 30
 0
 11
142.63800
 21
156.60500
  0
LINE
  8
Gravur
 62
   254
 39
0.400
  6
CONTINUOUS
 10
141.39600
 20
157.98500
 30
 0
 11
142.43100
 21
157.98500
  0
LINE
  8
Gravur
 62
   254
 39
0.400
  6
CONTINUOUS
 10
143.42000
 20
159.36500
 30
 0
 11
144.04100
 21
156.60500
  0
LINE
  8
Gravur
 62
   254
 39
0.400
  6
CONTINUOUS
 10
144.04100
 20
156.60500
 30
 0
 11
144.66200
 21
159.36500
  0
LINE
  8
Gravur
 62
   254
 39
0.400
  6
CONTINUOUS
 10
146.68600
 20
159.36500
 30
 0
 11
145.44400
 21
159.36500
  0
LINE
  8
Gravur
 62
   254
 39
0.400
  6
CONTINUOUS
 10
145.44400
 20
159.36500
 30
 0
 11
145.44400
 21
156.60500
  0
LINE
  8
Gravur
 62
   254
 39
0.400
  6
CONTINUOUS
 10
145.44400
 20
156.60500
 30
 0
 11
146.68600
 21
156.60500
  0
LINE
  8
Gravur
 62
   254
 39
0.400
  6
CONTINUOUS
 10
145.44400
 20
157.98500
 30
 0
 11
146.47900
 21
157.98500
  0
LINE
  8
Gravur
 62
   254
 39
0.400
  6
CONTINUOUS
 10
147.44500
 20
159.36500
 30
 0
 11
147.44500
 21
156.60500
  0
LINE
  8
Gravur
 62
   254
 39
0.400
  6
CONTINUOUS
 10
147.44500
 20
156.60500
 30
 0
 11
148.34200
 21
156.60500
  0
LINE
  8
Gravur
 62
   254
 39
0.600
  6
CONTINUOUS
 10
132.00000
 20
146.75000
 30
 0
 11
132.00000
 21
139.19000
  0
LINE
  8
Gravur
 62
   254
 39
0.400
  6
CONTINUOUS
 10
151.41500
 20
138.99700
 30
 0
 11
151.41500
 21
136.23700
  0
LINE
  8
Gravur
 62
   254
 39
0.400
  6
CONTINUOUS
 10
151.41500
 20
137.61700
 30
 0
 11
152.65700
 21
137.61700
  0
LINE
  8
Gravur
 62
   254
 39
0.400
  6
CONTINUOUS
 10
152.65700
 20
136.23700
 30
 0
 11
152.65700
 21
138.99700
  0
LINE
  8
Gravur
 62
   254
 39
0.400
  6
CONTINUOUS
 10
153.43900
 20
136.23700
 30
 0
 11
154.26700
 21
138.99700
  0
LINE
  8
Gravur
 62
   254
 39
0.400
  6
CONTINUOUS
 10
154.26700
 20
138.99700
 30
 0
 11
155.09500
 21
136.23700
  0
LINE
  8
Gravur
 62
   254
 39
0.400
  6
CONTINUOUS
 10
153.71500
 20
137.06500
 30
 0
 11
154.81900
 21
137.06500
  0
LINE
  8
Gravur
 62
   254
 39
0.400
  6
CONTINUOUS
 10
155.85400
 20
136.23700
 30
 0
 11
155.85400
 21
138.99700
  0
LINE
  8
Gravur
 62
   254
 39
0.400
  6
CONTINUOUS
 10
155.85400
 20
138.99700
 30
 0
 11
156.47500
 21
138.99700
  0
ARC
  8
Gravur
 62
   254
 39
0.400
  6
CONTINUOUS
 10
156.47500
 20
138.30700
 30
 0
 40
0.69000
 50
270.00000
 51
90.00000
  0
LINE
  8
Gravur
 62
   254
 39
0.400
  6
CONTINUOUS
 10
156.47500
 20
137.61700
 30
 0
 11
155.85400
 21
137.61700
  0
LINE
  8
Gravur
 62
   254
 39
0.400
  6
CONTINUOUS
 10
155.85400
 20
137.61700
 30
 0
 11
156.47500
 21
137.61700
  0
LINE
  8
Gravur
 62
   254
 39
0.400
  6
CONTINUOUS
 10
156.47500
 20
137.61700
 30
 0
 11
157.16500
 21
136.23700
  0
LINE
  8
Gravur
 62
   254
 39
0.400
  6
CONTINUOUS
 10
157.94700
 20
136.23700
 30
 0
 11
157.94700
 21
138.99700
  0
LINE
  8
Gravur
 62
   254
 39
0.400
  6
CONTINUOUS
 10
157.94700
 20
138.99700
 30
 0
 11
158.49900
 21
138.99700
  0
ARC
  8
Gravur
 62
   254
 39
0.400
  6
CONTINUOUS
 10
158.50300
 20
138.31100
 30
 0
 40
0.68600
 50
359.66592
 51
90.33408
  0
LINE
  8
Gravur
 62
   254
 39
0.400
  6
CONTINUOUS
 10
159.18900
 20
138.30700
 30
 0
 11
159.18900
 21
136.92700
  0
ARC
  8
Gravur
 62
   254
 39
0.400
  6
CONTINUOUS
 10
158.50300
 20
136.92300
 30
 0
 40
0.68600
 50
269.66592
 51
0.33408
  0
LINE
  8
Gravur
 62
   254
 39
0.400
  6
CONTINUOUS
 10
158.49900
 20
136.23700
 30
 0
 11
157.94700
 21
136.23700
  0
ARC
  8
Gravur
 62
   254
 39
0.400
  6
CONTINUOUS
 10
162.86900
 20
136.92700
 30
 0
 40
0.69000
 50
180.00000
 51
360.00000
  0
ARC
  8
Gravur
 62
   254
 39
0.400
  6
CONTINUOUS
 10
162.87300
 20
136.93100
 30
 0
 40
0.68600
 50
-0.33408
 51
90.33408
  0
ARC
  8
Gravur
 62
   254
 39
0.400
  6
CONTINUOUS
 10
162.86900
 20
138.30700
 30
 0
 40
0.69000
 50
90.00000
 51
-90.00000
  0
ARC
  8
Gravur
 62
   254
 39
0.400
  6
CONTINUOUS
 10
162.87300
 20
138.31100
 30
 0
 40
0.68600
 50
359.66592
 51
90.33408
  0
LINE
  8
Gravur
 62
   254
 39
0.400
  6
CONTINUOUS
 10
164.34100
 20
138.99700
 30
 0
 11
164.96200
 21
137.27200
  0
LINE
  8
Gravur
 62
   254
 39
0.400
  6
CONTINUOUS
 10
164.96200
 20
137.27200
 30
 0
 11
164.96200
 21
136.23700
  0
LINE
  8
Gravur
 62
   254
 39
0.400
  6
CONTINUOUS
 10
164.96200
 20
136.23700
 30
 0
 11
164.96200
 21
137.27200
  0
LINE
  8
Gravur
 62
   254
 39
0.400
  6
CONTINUOUS
 10
164.96200
 20
137.27200
 30
 0
 11
165.58300
 21
138.99700
  0
LINE
  8
Gravur
 62
   254
 39
0.400
  6
CONTINUOUS
 10
166.36500
 20
136.23700
 30
 0
 11
166.36500
 21
138.99700
  0
LINE
  8
Gravur
 62
   254
 39
0.400
  6
CONTINUOUS
 10
166.36500
 20
138.99700
 30
 0
 11
167.60700
 21
136.23700
  0
LINE
  8
Gravur
 62
   254
 39
0.400
  6
CONTINUOUS
 10
167.60700
 20
136.23700
 30
 0
 11
167.60700
 21
138.99700
  0
ARC
  8
Gravur
 62
   254
 39
0.400
  6
CONTINUOUS
 10
168.98700
 20
138.39900
 30
 0
 40
0.59800
 50
0.00000
 51
180.00000
  0
LINE
  8
Gravur
 62
   254
 39
0.400
  6
CONTINUOUS
 10
168.38900
 20
138.39900
 30
 0
 11
168.38900
 21
136.83500
  0
ARC
  8
Gravur
 62
   254
 39
0.400
  6
CONTINUOUS
 10
168.98700
 20
136.83500
 30
 0
 40
0.59800
 50
180.00000
 51
360.00000
  0
LINE
  8
Gravur
 62
   254
 39
0.400
  6
CONTINUOUS
 10
37.50000
 20
104.60500
 30
 0
 11
38.32800
 21
107.36500
  0
LINE
  8
Gravur
 62
   254
 39
0.400
  6
CONTINUOUS
 10
38.32800
 20
107.36500
 30
 0
 11
39.15600
 21
104.60500
  0
LINE
  8
Gravur
 62
   254
 39
0.400
  6
CONTINUOUS
 10
37.77600
 20
105.43300
 30
 0
 11
38.88000
 21
105.43300
  0
ARC
  8
Gravur
 62
   254
 39
0.400
  6
CONTINUOUS
 10
40.53600
 20
106.76700
 30
 0
 40
0.59800
 50
0.00000
 51
180.00000
  0
LINE
  8
Gravur
 62
   254
 39
0.400
  6
CONTINUOUS
 10
39.93800
 20
106.76700
 30
 0
 11
39.93800
 21
105.20300
  0
ARC
  8
Gravur
 62
   254
 39
0.400
  6
CONTINUOUS
 10
40.53600
 20
105.20300
 30
 0
 40
0.59800
 50
180.00000
 51
360.00000
  0
LINE
  8
Gravur
 62
   254
 39
0.400
  6
CONTINUOUS
 10
41.89300
 20
104.32900
 30
 0
 11
42.46800
 21
105.98500
  0
LINE
  8
Gravur
 62
   254
 39
0.400
  6
CONTINUOUS
 10
42.46800
 20
105.98500
 30
 0
 11
43.06600
 21
107.64100
  0
LINE
  8
Gravur
 62
   254
 39
0.400
  6
CONTINUOUS
 10
43.84800
 20
104.60500
 30
 0
 11
43.84800
 21
107.36500
  0
LINE
  8
Gravur
 62
   254
 39
0.400
  6
CONTINUOUS
 10
43.84800
 20
107.36500
 30
 0
 11
44.40000
 21
107.36500
  0
ARC
  8
Gravur
 62
   254
 39
0.400
  6
CONTINUOUS
 10
44.40400
 20
106.67900
 30
 0
 40
0.68600
 50
359.66592
 51
90.33408
  0
LINE
  8
Gravur
 62
   254
 39
0.400
  6
CONTINUOUS
 10
45.09000
 20
106.67500
 30
 0
 11
45.09000
 21
105.29500
  0
ARC
  8
Gravur
 62
   254
 39
0.400
  6
CONTINUOUS
 10
44.40400
 20
105.29100
 30
 0
 40
0.68600
 50
269.66592
 51
0.33408
  0
LINE
  8
Gravur
 62
   254
 39
0.400
  6
CONTINUOUS
 10
44.40000
 20
104.60500
 30
 0
 11
43.84800
 21
104.60500
  0
ARC
  8
Gravur
 62
   254
 39
0.400
  6
CONTINUOUS
 10
46.47000
 20
106.76700
 30
 0
 40
0.59800
 50
0.00000
 51
180.00000
  0
LINE
  8
Gravur
 62
   254
 39
0.400
  6
CONTINUOUS
 10
45.87200
 20
106.76700
 30
 0
 11
45.87200
 21
105.20300
  0
ARC
  8
Gravur
 62
   254
 39
0.400
  6
CONTINUOUS
 10
46.47000
 20
105.20300
 30
 0
 40
0.59800
 50
180.00000
 51
360.00000
  0
LINE
  8
Gravur
 62
   254
 39
0.400
  6
CONTINUOUS
 10
1.28600
 20
84.00000
 30
 0
 11
174.71400
 21
84.00000
  0
CIRCLE
  8
Kontur
 62
   7
 39
0.100
  6
CONTINUOUS
 10
82.55000
 20
215.90000
 30
 0
 40
2.75000
  0
CIRCLE
  8
Kontur
 62
   7
 39
0.100
  6
CONTINUOUS
 10
63.00000
 20
186.00000
 30
 0
 40
5.00000
  0
CIRCLE
  8
Kontur
 62
   7
 39
0.100
  6
CONTINUOUS
 10
6.35000
 20
215.90000
 30
 0
 40
2.75000
  0
CIRCLE
  8
Kontur
 62
   7
 39
0.100
  6
CONTINUOUS
 10
22.00000
 20
186.00000
 30
 0
 40
5.00000
  0
CIRCLE
  8
Kontur
 62
   7
 39
0.100
  6
CONTINUOUS
 10
82.55000
 20
6.35000
 30
 0
 40
2.75000
  0
CIRCLE
  8
Kontur
 62
   7
 39
0.100
  6
CONTINUOUS
 10
6.35000
 20
6.35000
 30
 0
 40
2.75000
  0
CIRCLE
  8
Kontur
 62
   7
 39
0.100
  6
CONTINUOUS
 10
99.00000
 20
128.81200
 30
 0
 40
5.25000
  0
CIRCLE
  8
Kontur
 62
   7
 39
0.100
  6
CONTINUOUS
 10
63.00000
 20
22.00000
 30
 0
 40
5.00000
  0
CIRCLE
  8
Kontur
 62
   7
 39
0.100
  6
CONTINUOUS
 10
132.00000
 20
186.00000
 30
 0
 40
5.00000
  0
CIRCLE
  8
Kontur
 62
   7
 39
0.100
  6
CONTINUOUS
 10
99.00000
 20
22.00000
 30
 0
 40
5.00000
  0
CIRCLE
  8
Kontur
 62
   7
 39
0.100
  6
CONTINUOUS
 10
159.00000
 20
186.00000
 30
 0
 40
5.00000
  0
CIRCLE
  8
Kontur
 62
   7
 39
0.100
  6
CONTINUOUS
 10
99.00000
 20
186.00000
 30
 0
 40
5.25000
  0
CIRCLE
  8
Kontur
 62
   7
 39
0.100
  6
CONTINUOUS
 10
22.00000
 20
22.00000
 30
 0
 40
5.00000
  0
CIRCLE
  8
Kontur
 62
   7
 39
0.100
  6
CONTINUOUS
 10
63.00000
 20
95.00000
 30
 0
 40
5.00000
  0
CIRCLE
  8
Kontur
 62
   7
 39
0.100
  6
CONTINUOUS
 10
132.00000
 20
22.00000
 30
 0
 40
5.00000
  0
CIRCLE
  8
Kontur
 62
   7
 39
0.100
  6
CONTINUOUS
 10
99.00000
 20
95.00000
 30
 0
 40
5.00000
  0
CIRCLE
  8
Kontur
 62
   7
 39
0.100
  6
CONTINUOUS
 10
159.00000
 20
148.45000
 30
 0
 40
5.00000
  0
CIRCLE
  8
Kontur
 62
   7
 39
0.100
  6
CONTINUOUS
 10
63.00000
 20
128.31000
 30
 0
 40
5.25000
  0
CIRCLE
  8
Kontur
 62
   7
 39
0.100
  6
CONTINUOUS
 10
159.00000
 20
95.00000
 30
 0
 40
5.00000
  0
CIRCLE
  8
Kontur
 62
   7
 39
0.100
  6
CONTINUOUS
 10
99.00000
 20
52.00000
 30
 0
 40
5.00000
  0
CIRCLE
  8
Kontur
 62
   7
 39
0.100
  6
CONTINUOUS
 10
63.00000
 20
51.00000
 30
 0
 40
5.00000
  0
CIRCLE
  8
Kontur
 62
   7
 39
0.100
  6
CONTINUOUS
 10
132.00000
 20
52.00000
 30
 0
 40
5.00000
  0
CIRCLE
  8
Kontur
 62
   7
 39
0.100
  6
CONTINUOUS
 10
22.00000
 20
51.00000
 30
 0
 40
5.00000
  0
CIRCLE
  8
Kontur
 62
   7
 39
0.100
  6
CONTINUOUS
 10
22.00000
 20
128.31000
 30
 0
 40
5.25000
  0
CIRCLE
  8
Kontur
 62
   7
 39
0.100
  6
CONTINUOUS
 10
167.85800
 20
216.63200
 30
 0
 40
2.75000
  0
CIRCLE
  8
Kontur
 62
   7
 39
0.100
  6
CONTINUOUS
 10
167.86000
 20
6.35000
 30
 0
 40
2.75000
  0
CIRCLE
  8
Kontur
 62
   7
 39
0.100
  6
CONTINUOUS
 10
159.00000
 20
52.00000
 30
 0
 40
5.00000
  0
CIRCLE
  8
Kontur
 62
   7
 39
0.100
  6
CONTINUOUS
 10
22.00000
 20
95.00000
 30
 0
 40
5.00000
  0
CIRCLE
  8
Kontur
 62
   7
 39
0.100
  6
CONTINUOUS
 10
132.00000
 20
95.00000
 30
 0
 40
5.00000
  0
CIRCLE
  8
Kontur
 62
   7
 39
0.100
  6
CONTINUOUS
 10
159.00000
 20
22.00000
 30
 0
 40
5.00000
  0
CIRCLE
  8
Kontur
 62
   7
 39
0.100
  6
CONTINUOUS
 10
132.00000
 20
128.31200
 30
 0
 40
5.25000
  0
CIRCLE
  8
Kontur
 62
   7
 39
0.100
  6
CONTINUOUS
 10
159.00000
 20
127.95000
 30
 0
 40
5.00000
  0
CIRCLE
  8
Kontur
 62
   7
 39
0.100
  6
CONTINUOUS
 10
41.50000
 20
95.00000
 30
 0
 40
5.00000
  0
CIRCLE
  8
Kontur
 62
   7
 39
0.100
  6
CONTINUOUS
 10
31.85000
 20
86.85000
 30
 0
 40
1.55000
  0
CIRCLE
  8
Kontur
 62
   7
 39
0.100
  6
CONTINUOUS
 10
121.85000
 20
86.85000
 30
 0
 40
1.55000
  0
LINE
  8
Bezugspunkte
 62
   1
 39
0.100
  6
CONTINUOUS
 10
-1.00000
 20
0.00000
 30
 0
 11
1.00000
 21
0.00000
  0
LINE
  8
Bezugspunkte
 62
   1
 39
0.100
  6
CONTINUOUS
 10
0.00000
 20
-1.00000
 30
 0
 11
0.00000
 21
1.00000
  0
LINE
  8
Bezugspunkte
 62
   1
 39
0.100
  6
CONTINUOUS
 10
81.55000
 20
215.90000
 30
 0
 11
83.55000
 21
215.90000
  0
LINE
  8
Bezugspunkte
 62
   1
 39
0.100
  6
CONTINUOUS
 10
82.55000
 20
214.90000
 30
 0
 11
82.55000
 21
216.90000
  0
LINE
  8
Bezugspunkte
 62
   1
 39
0.100
  6
CONTINUOUS
 10
62.00000
 20
201.73500
 30
 0
 11
64.00000
 21
201.73500
  0
LINE
  8
Bezugspunkte
 62
   1
 39
0.100
  6
CONTINUOUS
 10
63.00000
 20
200.73500
 30
 0
 11
63.00000
 21
202.73500
  0
LINE
  8
Bezugspunkte
 62
   1
 39
0.100
  6
CONTINUOUS
 10
62.00000
 20
211.00000
 30
 0
 11
64.00000
 21
211.00000
  0
LINE
  8
Bezugspunkte
 62
   1
 39
0.100
  6
CONTINUOUS
 10
63.00000
 20
210.00000
 30
 0
 11
63.00000
 21
212.00000
  0
LINE
  8
Bezugspunkte
 62
   1
 39
0.100
  6
CONTINUOUS
 10
62.00000
 20
186.00000
 30
 0
 11
64.00000
 21
186.00000
  0
LINE
  8
Bezugspunkte
 62
   1
 39
0.100
  6
CONTINUOUS
 10
63.00000
 20
185.00000
 30
 0
 11
63.00000
 21
187.00000
  0
LINE
  8
Bezugspunkte
 62
   1
 39
0.100
  6
CONTINUOUS
 10
5.35000
 20
215.90000
 30
 0
 11
7.35000
 21
215.90000
  0
LINE
  8
Bezugspunkte
 62
   1
 39
0.100
  6
CONTINUOUS
 10
6.35000
 20
214.90000
 30
 0
 11
6.35000
 21
216.90000
  0
LINE
  8
Bezugspunkte
 62
   1
 39
0.100
  6
CONTINUOUS
 10
21.00000
 20
202.00000
 30
 0
 11
23.00000
 21
202.00000
  0
LINE
  8
Bezugspunkte
 62
   1
 39
0.100
  6
CONTINUOUS
 10
22.00000
 20
201.00000
 30
 0
 11
22.00000
 21
203.00000
  0
LINE
  8
Bezugspunkte
 62
   1
 39
0.100
  6
CONTINUOUS
 10
21.00000
 20
211.00000
 30
 0
 11
23.00000
 21
211.00000
  0
LINE
  8
Bezugspunkte
 62
   1
 39
0.100
  6
CONTINUOUS
 10
22.00000
 20
210.00000
 30
 0
 11
22.00000
 21
212.00000
  0
LINE
  8
Bezugspunkte
 62
   1
 39
0.100
  6
CONTINUOUS
 10
21.00000
 20
186.00000
 30
 0
 11
23.00000
 21
186.00000
  0
LINE
  8
Bezugspunkte
 62
   1
 39
0.100
  6
CONTINUOUS
 10
22.00000
 20
185.00000
 30
 0
 11
22.00000
 21
187.00000
  0
LINE
  8
Bezugspunkte
 62
   1
 39
0.100
  6
CONTINUOUS
 10
81.55000
 20
6.35000
 30
 0
 11
83.55000
 21
6.35000
  0
LINE
  8
Bezugspunkte
 62
   1
 39
0.100
  6
CONTINUOUS
 10
82.55000
 20
5.35000
 30
 0
 11
82.55000
 21
7.35000
  0
LINE
  8
Bezugspunkte
 62
   1
 39
0.100
  6
CONTINUOUS
 10
96.69100
 20
158.00000
 30
 0
 11
98.69100
 21
158.00000
  0
LINE
  8
Bezugspunkte
 62
   1
 39
0.100
  6
CONTINUOUS
 10
97.69100
 20
157.00000
 30
 0
 11
97.69100
 21
159.00000
  0
LINE
  8
Bezugspunkte
 62
   1
 39
0.100
  6
CONTINUOUS
 10
43.45000
 20
216.15400
 30
 0
 11
45.45000
 21
216.15400
  0
LINE
  8
Bezugspunkte
 62
   1
 39
0.100
  6
CONTINUOUS
 10
44.45000
 20
215.15400
 30
 0
 11
44.45000
 21
217.15400
  0
LINE
  8
Bezugspunkte
 62
   1
 39
0.100
  6
CONTINUOUS
 10
5.35000
 20
6.35000
 30
 0
 11
7.35000
 21
6.35000
  0
LINE
  8
Bezugspunkte
 62
   1
 39
0.100
  6
CONTINUOUS
 10
6.35000
 20
5.35000
 30
 0
 11
6.35000
 21
7.35000
  0
LINE
  8
Bezugspunkte
 62
   1
 39
0.100
  6
CONTINUOUS
 10
98.00000
 20
143.00000
 30
 0
 11
100.00000
 21
143.00000
  0
LINE
  8
Bezugspunkte
 62
   1
 39
0.100
  6
CONTINUOUS
 10
99.00000
 20
142.00000
 30
 0
 11
99.00000
 21
144.00000
  0
LINE
  8
Bezugspunkte
 62
   1
 39
0.100
  6
CONTINUOUS
 10
98.00000
 20
128.81200
 30
 0
 11
100.00000
 21
128.81200
  0
LINE
  8
Bezugspunkte
 62
   1
 39
0.100
  6
CONTINUOUS
 10
99.00000
 20
127.81200
 30
 0
 11
99.00000
 21
129.81200
  0
LINE
  8
Bezugspunkte
 62
   1
 39
0.100
  6
CONTINUOUS
 10
86.73000
 20
163.60000
 30
 0
 11
88.73000
 21
163.60000
  0
LINE
  8
Bezugspunkte
 62
   1
 39
0.100
  6
CONTINUOUS
 10
87.73000
 20
162.60000
 30
 0
 11
87.73000
 21
164.60000
  0
LINE
  8
Bezugspunkte
 62
   1
 39
0.100
  6
CONTINUOUS
 10
62.00000
 20
22.00000
 30
 0
 11
64.00000
 21
22.00000
  0
LINE
  8
Bezugspunkte
 62
   1
 39
0.100
  6
CONTINUOUS
 10
63.00000
 20
21.00000
 30
 0
 11
63.00000
 21
23.00000
  0
LINE
  8
Bezugspunkte
 62
   1
 39
0.100
  6
CONTINUOUS
 10
131.00000
 20
186.00000
 30
 0
 11
133.00000
 21
186.00000
  0
LINE
  8
Bezugspunkte
 62
   1
 39
0.100
  6
CONTINUOUS
 10
132.00000
 20
185.00000
 30
 0
 11
132.00000
 21
187.00000
  0
LINE
  8
Bezugspunkte
 62
   1
 39
0.100
  6
CONTINUOUS
 10
98.00000
 20
22.00000
 30
 0
 11
100.00000
 21
22.00000
  0
LINE
  8
Bezugspunkte
 62
   1
 39
0.100
  6
CONTINUOUS
 10
99.00000
 20
21.00000
 30
 0
 11
99.00000
 21
23.00000
  0
LINE
  8
Bezugspunkte
 62
   1
 39
0.100
  6
CONTINUOUS
 10
158.00000
 20
186.00000
 30
 0
 11
160.00000
 21
186.00000
  0
LINE
  8
Bezugspunkte
 62
   1
 39
0.100
  6
CONTINUOUS
 10
159.00000
 20
185.00000
 30
 0
 11
159.00000
 21
187.00000
  0
LINE
  8
Bezugspunkte
 62
   1
 39
0.100
  6
CONTINUOUS
 10
40.96000
 20
154.33000
 30
 0
 11
42.96000
 21
154.33000
  0
LINE
  8
Bezugspunkte
 62
   1
 39
0.100
  6
CONTINUOUS
 10
41.96000
 20
153.33000
 30
 0
 11
41.96000
 21
155.33000
  0
LINE
  8
Bezugspunkte
 62
   1
 39
0.100
  6
CONTINUOUS
 10
98.00000
 20
32.00000
 30
 0
 11
100.00000
 21
32.00000
  0
LINE
  8
Bezugspunkte
 62
   1
 39
0.100
  6
CONTINUOUS
 10
99.00000
 20
31.00000
 30
 0
 11
99.00000
 21
33.00000
  0
LINE
  8
Bezugspunkte
 62
   1
 39
0.100
  6
CONTINUOUS
 10
158.00000
 20
200.00000
 30
 0
 11
160.00000
 21
200.00000
  0
LINE
  8
Bezugspunkte
 62
   1
 39
0.100
  6
CONTINUOUS
 10
159.00000
 20
199.00000
 30
 0
 11
159.00000
 21
201.00000
  0
LINE
  8
Bezugspunkte
 62
   1
 39
0.100
  6
CONTINUOUS
 10
62.00000
 20
32.00000
 30
 0
 11
64.00000
 21
32.00000
  0
LINE
  8
Bezugspunkte
 62
   1
 39
0.100
  6
CONTINUOUS
 10
63.00000
 20
31.00000
 30
 0
 11
63.00000
 21
33.00000
  0
LINE
  8
Bezugspunkte
 62
   1
 39
0.100
  6
CONTINUOUS
 10
131.00000
 20
200.00000
 30
 0
 11
133.00000
 21
200.00000
  0
LINE
  8
Bezugspunkte
 62
   1
 39
0.100
  6
CONTINUOUS
 10
132.00000
 20
199.00000
 30
 0
 11
132.00000
 21
201.00000
  0
LINE
  8
Bezugspunkte
 62
   1
 39
0.100
  6
CONTINUOUS
 10
98.00000
 20
201.05000
 30
 0
 11
100.00000
 21
201.05000
  0
LINE
  8
Bezugspunkte
 62
   1
 39
0.100
  6
CONTINUOUS
 10
99.00000
 20
200.05000
 30
 0
 11
99.00000
 21
202.05000
  0
LINE
  8
Bezugspunkte
 62
   1
 39
0.100
  6
CONTINUOUS
 10
98.00000
 20
211.00000
 30
 0
 11
100.00000
 21
211.00000
  0
LINE
  8
Bezugspunkte
 62
   1
 39
0.100
  6
CONTINUOUS
 10
99.00000
 20
210.00000
 30
 0
 11
99.00000
 21
212.00000
  0
LINE
  8
Bezugspunkte
 62
   1
 39
0.100
  6
CONTINUOUS
 10
98.00000
 20
186.00000
 30
 0
 11
100.00000
 21
186.00000
  0
LINE
  8
Bezugspunkte
 62
   1
 39
0.100
  6
CONTINUOUS
 10
99.00000
 20
185.00000
 30
 0
 11
99.00000
 21
187.00000
  0
LINE
  8
Bezugspunkte
 62
   1
 39
0.100
  6
CONTINUOUS
 10
21.00000
 20
22.00000
 30
 0
 11
23.00000
 21
22.00000
  0
LINE
  8
Bezugspunkte
 62
   1
 39
0.100
  6
CONTINUOUS
 10
22.00000
 20
21.00000
 30
 0
 11
22.00000
 21
23.00000
  0
LINE
  8
Bezugspunkte
 62
   1
 39
0.100
  6
CONTINUOUS
 10
62.00000
 20
95.00000
 30
 0
 11
64.00000
 21
95.00000
  0
LINE
  8
Bezugspunkte
 62
   1
 39
0.100
  6
CONTINUOUS
 10
63.00000
 20
94.00000
 30
 0
 11
63.00000
 21
96.00000
  0
LINE
  8
Bezugspunkte
 62
   1
 39
0.100
  6
CONTINUOUS
 10
131.00000
 20
22.00000
 30
 0
 11
133.00000
 21
22.00000
  0
LINE
  8
Bezugspunkte
 62
   1
 39
0.100
  6
CONTINUOUS
 10
132.00000
 20
21.00000
 30
 0
 11
132.00000
 21
23.00000
  0
LINE
  8
Bezugspunkte
 62
   1
 39
0.100
  6
CONTINUOUS
 10
98.00000
 20
95.00000
 30
 0
 11
100.00000
 21
95.00000
  0
LINE
  8
Bezugspunkte
 62
   1
 39
0.100
  6
CONTINUOUS
 10
99.00000
 20
94.00000
 30
 0
 11
99.00000
 21
96.00000
  0
LINE
  8
Bezugspunkte
 62
   1
 39
0.100
  6
CONTINUOUS
 10
131.00000
 20
32.00000
 30
 0
 11
133.00000
 21
32.00000
  0
LINE
  8
Bezugspunkte
 62
   1
 39
0.100
  6
CONTINUOUS
 10
132.00000
 20
31.00000
 30
 0
 11
132.00000
 21
33.00000
  0
LINE
  8
Bezugspunkte
 62
   1
 39
0.100
  6
CONTINUOUS
 10
98.00000
 20
106.00000
 30
 0
 11
100.00000
 21
106.00000
  0
LINE
  8
Bezugspunkte
 62
   1
 39
0.100
  6
CONTINUOUS
 10
99.00000
 20
105.00000
 30
 0
 11
99.00000
 21
107.00000
  0
LINE
  8
Bezugspunkte
 62
   1
 39
0.100
  6
CONTINUOUS
 10
21.00000
 20
32.00000
 30
 0
 11
23.00000
 21
32.00000
  0
LINE
  8
Bezugspunkte
 62
   1
 39
0.100
  6
CONTINUOUS
 10
22.00000
 20
31.00000
 30
 0
 11
22.00000
 21
33.00000
  0
LINE
  8
Bezugspunkte
 62
   1
 39
0.100
  6
CONTINUOUS
 10
62.00000
 20
106.00000
 30
 0
 11
64.00000
 21
106.00000
  0
LINE
  8
Bezugspunkte
 62
   1
 39
0.100
  6
CONTINUOUS
 10
63.00000
 20
105.00000
 30
 0
 11
63.00000
 21
107.00000
  0
LINE
  8
Bezugspunkte
 62
   1
 39
0.100
  6
CONTINUOUS
 10
158.00000
 20
148.45000
 30
 0
 11
160.00000
 21
148.45000
  0
LINE
  8
Bezugspunkte
 62
   1
 39
0.100
  6
CONTINUOUS
 10
159.00000
 20
147.45000
 30
 0
 11
159.00000
 21
149.45000
  0
LINE
  8
Bezugspunkte
 62
   1
 39
0.100
  6
CONTINUOUS
 10
158.00000
 20
158.00000
 30
 0
 11
160.00000
 21
158.00000
  0
LINE
  8
Bezugspunkte
 62
   1
 39
0.100
  6
CONTINUOUS
 10
159.00000
 20
157.00000
 30
 0
 11
159.00000
 21
159.00000
  0
LINE
  8
Bezugspunkte
 62
   1
 39
0.100
  6
CONTINUOUS
 10
62.00000
 20
158.00000
 30
 0
 11
64.00000
 21
158.00000
  0
LINE
  8
Bezugspunkte
 62
   1
 39
0.100
  6
CONTINUOUS
 10
63.00000
 20
157.00000
 30
 0
 11
63.00000
 21
159.00000
  0
LINE
  8
Bezugspunkte
 62
   1
 39
0.100
  6
CONTINUOUS
 10
62.00000
 20
143.00000
 30
 0
 11
64.00000
 21
143.00000
  0
LINE
  8
Bezugspunkte
 62
   1
 39
0.100
  6
CONTINUOUS
 10
63.00000
 20
142.00000
 30
 0
 11
63.00000
 21
144.00000
  0
LINE
  8
Bezugspunkte
 62
   1
 39
0.100
  6
CONTINUOUS
 10
62.00000
 20
128.31000
 30
 0
 11
64.00000
 21
128.31000
  0
LINE
  8
Bezugspunkte
 62
   1
 39
0.100
  6
CONTINUOUS
 10
63.00000
 20
127.31000
 30
 0
 11
63.00000
 21
129.31000
  0
LINE
  8
Bezugspunkte
 62
   1
 39
0.100
  6
CONTINUOUS
 10
158.00000
 20
95.00000
 30
 0
 11
160.00000
 21
95.00000
  0
LINE
  8
Bezugspunkte
 62
   1
 39
0.100
  6
CONTINUOUS
 10
159.00000
 20
94.00000
 30
 0
 11
159.00000
 21
96.00000
  0
LINE
  8
Bezugspunkte
 62
   1
 39
0.100
  6
CONTINUOUS
 10
158.00000
 20
106.00000
 30
 0
 11
160.00000
 21
106.00000
  0
LINE
  8
Bezugspunkte
 62
   1
 39
0.100
  6
CONTINUOUS
 10
159.00000
 20
105.00000
 30
 0
 11
159.00000
 21
107.00000
  0
LINE
  8
Bezugspunkte
 62
   1
 39
0.100
  6
CONTINUOUS
 10
98.00000
 20
66.00000
 30
 0
 11
100.00000
 21
66.00000
  0
LINE
  8
Bezugspunkte
 62
   1
 39
0.100
  6
CONTINUOUS
 10
99.00000
 20
65.00000
 30
 0
 11
99.00000
 21
67.00000
  0
LINE
  8
Bezugspunkte
 62
   1
 39
0.100
  6
CONTINUOUS
 10
98.00000
 20
78.00000
 30
 0
 11
100.00000
 21
78.00000
  0
LINE
  8
Bezugspunkte
 62
   1
 39
0.100
  6
CONTINUOUS
 10
99.00000
 20
77.00000
 30
 0
 11
99.00000
 21
79.00000
  0
LINE
  8
Bezugspunkte
 62
   1
 39
0.100
  6
CONTINUOUS
 10
98.00000
 20
52.00000
 30
 0
 11
100.00000
 21
52.00000
  0
LINE
  8
Bezugspunkte
 62
   1
 39
0.100
  6
CONTINUOUS
 10
99.00000
 20
51.00000
 30
 0
 11
99.00000
 21
53.00000
  0
LINE
  8
Bezugspunkte
 62
   1
 39
0.100
  6
CONTINUOUS
 10
62.00000
 20
66.00000
 30
 0
 11
64.00000
 21
66.00000
  0
LINE
  8
Bezugspunkte
 62
   1
 39
0.100
  6
CONTINUOUS
 10
63.00000
 20
65.00000
 30
 0
 11
63.00000
 21
67.00000
  0
LINE
  8
Bezugspunkte
 62
   1
 39
0.100
  6
CONTINUOUS
 10
62.00000
 20
78.00000
 30
 0
 11
64.00000
 21
78.00000
  0
LINE
  8
Bezugspunkte
 62
   1
 39
0.100
  6
CONTINUOUS
 10
63.00000
 20
77.00000
 30
 0
 11
63.00000
 21
79.00000
  0
LINE
  8
Bezugspunkte
 62
   1
 39
0.100
  6
CONTINUOUS
 10
62.00000
 20
51.00000
 30
 0
 11
64.00000
 21
51.00000
  0
LINE
  8
Bezugspunkte
 62
   1
 39
0.100
  6
CONTINUOUS
 10
63.00000
 20
50.00000
 30
 0
 11
63.00000
 21
52.00000
  0
LINE
  8
Bezugspunkte
 62
   1
 39
0.100
  6
CONTINUOUS
 10
131.00000
 20
66.00000
 30
 0
 11
133.00000
 21
66.00000
  0
LINE
  8
Bezugspunkte
 62
   1
 39
0.100
  6
CONTINUOUS
 10
132.00000
 20
65.00000
 30
 0
 11
132.00000
 21
67.00000
  0
LINE
  8
Bezugspunkte
 62
   1
 39
0.100
  6
CONTINUOUS
 10
131.00000
 20
78.00000
 30
 0
 11
133.00000
 21
78.00000
  0
LINE
  8
Bezugspunkte
 62
   1
 39
0.100
  6
CONTINUOUS
 10
132.00000
 20
77.00000
 30
 0
 11
132.00000
 21
79.00000
  0
LINE
  8
Bezugspunkte
 62
   1
 39
0.100
  6
CONTINUOUS
 10
131.00000
 20
52.00000
 30
 0
 11
133.00000
 21
52.00000
  0
LINE
  8
Bezugspunkte
 62
   1
 39
0.100
  6
CONTINUOUS
 10
132.00000
 20
51.00000
 30
 0
 11
132.00000
 21
53.00000
  0
LINE
  8
Bezugspunkte
 62
   1
 39
0.100
  6
CONTINUOUS
 10
21.00000
 20
66.00000
 30
 0
 11
23.00000
 21
66.00000
  0
LINE
  8
Bezugspunkte
 62
   1
 39
0.100
  6
CONTINUOUS
 10
22.00000
 20
65.00000
 30
 0
 11
22.00000
 21
67.00000
  0
LINE
  8
Bezugspunkte
 62
   1
 39
0.100
  6
CONTINUOUS
 10
21.00000
 20
78.00000
 30
 0
 11
23.00000
 21
78.00000
  0
LINE
  8
Bezugspunkte
 62
   1
 39
0.100
  6
CONTINUOUS
 10
22.00000
 20
77.00000
 30
 0
 11
22.00000
 21
79.00000
  0
LINE
  8
Bezugspunkte
 62
   1
 39
0.100
  6
CONTINUOUS
 10
21.00000
 20
51.00000
 30
 0
 11
23.00000
 21
51.00000
  0
LINE
  8
Bezugspunkte
 62
   1
 39
0.100
  6
CONTINUOUS
 10
22.00000
 20
50.00000
 30
 0
 11
22.00000
 21
52.00000
  0
LINE
  8
Bezugspunkte
 62
   1
 39
0.100
  6
CONTINUOUS
 10
148.42400
 20
97.70000
 30
 0
 11
150.42400
 21
97.70000
  0
LINE
  8
Bezugspunkte
 62
   1
 39
0.100
  6
CONTINUOUS
 10
149.42400
 20
96.70000
 30
 0
 11
149.42400
 21
98.70000
  0
LINE
  8
Bezugspunkte
 62
   1
 39
0.100
  6
CONTINUOUS
 10
21.00000
 20
158.00000
 30
 0
 11
23.00000
 21
158.00000
  0
LINE
  8
Bezugspunkte
 62
   1
 39
0.100
  6
CONTINUOUS
 10
22.00000
 20
157.00000
 30
 0
 11
22.00000
 21
159.00000
  0
LINE
  8
Bezugspunkte
 62
   1
 39
0.100
  6
CONTINUOUS
 10
21.00000
 20
143.00000
 30
 0
 11
23.00000
 21
143.00000
  0
LINE
  8
Bezugspunkte
 62
   1
 39
0.100
  6
CONTINUOUS
 10
22.00000
 20
142.00000
 30
 0
 11
22.00000
 21
144.00000
  0
LINE
  8
Bezugspunkte
 62
   1
 39
0.100
  6
CONTINUOUS
 10
21.00000
 20
128.31000
 30
 0
 11
23.00000
 21
128.31000
  0
LINE
  8
Bezugspunkte
 62
   1
 39
0.100
  6
CONTINUOUS
 10
22.00000
 20
127.31000
 30
 0
 11
22.00000
 21
129.31000
  0
LINE
  8
Bezugspunkte
 62
   1
 39
0.100
  6
CONTINUOUS
 10
166.85800
 20
216.63200
 30
 0
 11
168.85800
 21
216.63200
  0
LINE
  8
Bezugspunkte
 62
   1
 39
0.100
  6
CONTINUOUS
 10
167.85800
 20
215.63200
 30
 0
 11
167.85800
 21
217.63200
  0
LINE
  8
Bezugspunkte
 62
   1
 39
0.100
  6
CONTINUOUS
 10
166.86000
 20
6.35000
 30
 0
 11
168.86000
 21
6.35000
  0
LINE
  8
Bezugspunkte
 62
   1
 39
0.100
  6
CONTINUOUS
 10
167.86000
 20
5.35000
 30
 0
 11
167.86000
 21
7.35000
  0
LINE
  8
Bezugspunkte
 62
   1
 39
0.100
  6
CONTINUOUS
 10
158.00000
 20
52.00000
 30
 0
 11
160.00000
 21
52.00000
  0
LINE
  8
Bezugspunkte
 62
   1
 39
0.100
  6
CONTINUOUS
 10
159.00000
 20
51.00000
 30
 0
 11
159.00000
 21
53.00000
  0
LINE
  8
Bezugspunkte
 62
   1
 39
0.100
  6
CONTINUOUS
 10
158.00000
 20
78.00000
 30
 0
 11
160.00000
 21
78.00000
  0
LINE
  8
Bezugspunkte
 62
   1
 39
0.100
  6
CONTINUOUS
 10
159.00000
 20
77.00000
 30
 0
 11
159.00000
 21
79.00000
  0
LINE
  8
Bezugspunkte
 62
   1
 39
0.100
  6
CONTINUOUS
 10
21.00000
 20
106.00000
 30
 0
 11
23.00000
 21
106.00000
  0
LINE
  8
Bezugspunkte
 62
   1
 39
0.100
  6
CONTINUOUS
 10
22.00000
 20
105.00000
 30
 0
 11
22.00000
 21
107.00000
  0
LINE
  8
Bezugspunkte
 62
   1
 39
0.100
  6
CONTINUOUS
 10
21.00000
 20
95.00000
 30
 0
 11
23.00000
 21
95.00000
  0
LINE
  8
Bezugspunkte
 62
   1
 39
0.100
  6
CONTINUOUS
 10
22.00000
 20
94.00000
 30
 0
 11
22.00000
 21
96.00000
  0
LINE
  8
Bezugspunkte
 62
   1
 39
0.100
  6
CONTINUOUS
 10
131.00000
 20
106.00000
 30
 0
 11
133.00000
 21
106.00000
  0
LINE
  8
Bezugspunkte
 62
   1
 39
0.100
  6
CONTINUOUS
 10
132.00000
 20
105.00000
 30
 0
 11
132.00000
 21
107.00000
  0
LINE
  8
Bezugspunkte
 62
   1
 39
0.100
  6
CONTINUOUS
 10
131.00000
 20
95.00000
 30
 0
 11
133.00000
 21
95.00000
  0
LINE
  8
Bezugspunkte
 62
   1
 39
0.100
  6
CONTINUOUS
 10
132.00000
 20
94.00000
 30
 0
 11
132.00000
 21
96.00000
  0
LINE
  8
Bezugspunkte
 62
   1
 39
0.100
  6
CONTINUOUS
 10
120.95000
 20
216.15400
 30
 0
 11
122.95000
 21
216.15400
  0
LINE
  8
Bezugspunkte
 62
   1
 39
0.100
  6
CONTINUOUS
 10
121.95000
 20
215.15400
 30
 0
 11
121.95000
 21
217.15400
  0
LINE
  8
Bezugspunkte
 62
   1
 39
0.100
  6
CONTINUOUS
 10
158.00000
 20
22.00000
 30
 0
 11
160.00000
 21
22.00000
  0
LINE
  8
Bezugspunkte
 62
   1
 39
0.100
  6
CONTINUOUS
 10
159.00000
 20
21.00000
 30
 0
 11
159.00000
 21
23.00000
  0
LINE
  8
Bezugspunkte
 62
   1
 39
0.100
  6
CONTINUOUS
 10
158.00000
 20
32.00000
 30
 0
 11
160.00000
 21
32.00000
  0
LINE
  8
Bezugspunkte
 62
   1
 39
0.100
  6
CONTINUOUS
 10
159.00000
 20
31.00000
 30
 0
 11
159.00000
 21
33.00000
  0
LINE
  8
Bezugspunkte
 62
   1
 39
0.100
  6
CONTINUOUS
 10
132.69100
 20
158.00000
 30
 0
 11
134.69100
 21
158.00000
  0
LINE
  8
Bezugspunkte
 62
   1
 39
0.100
  6
CONTINUOUS
 10
133.69100
 20
157.00000
 30
 0
 11
133.69100
 21
159.00000
  0
LINE
  8
Bezugspunkte
 62
   1
 39
0.100
  6
CONTINUOUS
 10
131.00000
 20
143.00000
 30
 0
 11
133.00000
 21
143.00000
  0
LINE
  8
Bezugspunkte
 62
   1
 39
0.100
  6
CONTINUOUS
 10
132.00000
 20
142.00000
 30
 0
 11
132.00000
 21
144.00000
  0
LINE
  8
Bezugspunkte
 62
   1
 39
0.100
  6
CONTINUOUS
 10
131.00000
 20
128.31200
 30
 0
 11
133.00000
 21
128.31200
  0
LINE
  8
Bezugspunkte
 62
   1
 39
0.100
  6
CONTINUOUS
 10
132.00000
 20
127.31200
 30
 0
 11
132.00000
 21
129.31200
  0
LINE
  8
Bezugspunkte
 62
   1
 39
0.100
  6
CONTINUOUS
 10
158.00000
 20
127.95000
 30
 0
 11
160.00000
 21
127.95000
  0
LINE
  8
Bezugspunkte
 62
   1
 39
0.100
  6
CONTINUOUS
 10
159.00000
 20
126.95000
 30
 0
 11
159.00000
 21
128.95000
  0
LINE
  8
Bezugspunkte
 62
   1
 39
0.100
  6
CONTINUOUS
 10
159.50000
 20
137.63200
 30
 0
 11
161.50000
 21
137.63200
  0
LINE
  8
Bezugspunkte
 62
   1
 39
0.100
  6
CONTINUOUS
 10
160.50000
 20
136.63200
 30
 0
 11
160.50000
 21
138.63200
  0
LINE
  8
Bezugspunkte
 62
   1
 39
0.100
  6
CONTINUOUS
 10
40.50000
 20
95.00000
 30
 0
 11
42.50000
 21
95.00000
  0
LINE
  8
Bezugspunkte
 62
   1
 39
0.100
  6
CONTINUOUS
 10
41.50000
 20
94.00000
 30
 0
 11
41.50000
 21
96.00000
  0
LINE
  8
Bezugspunkte
 62
   1
 39
0.100
  6
CONTINUOUS
 10
41.28400
 20
106.00000
 30
 0
 11
43.28400
 21
106.00000
  0
LINE
  8
Bezugspunkte
 62
   1
 39
0.100
  6
CONTINUOUS
 10
42.28400
 20
105.00000
 30
 0
 11
42.28400
 21
107.00000
  0
LINE
  8
Bezugspunkte
 62
   1
 39
0.100
  6
CONTINUOUS
 10
87.00000
 20
84.00000
 30
 0
 11
89.00000
 21
84.00000
  0
LINE
  8
Bezugspunkte
 62
   1
 39
0.100
  6
CONTINUOUS
 10
88.00000
 20
83.00000
 30
 0
 11
88.00000
 21
85.00000
  0
LINE
  8
Bezugspunkte
 62
   1
 39
0.100
  6
CONTINUOUS
 10
30.85000
 20
86.85000
 30
 0
 11
32.85000
 21
86.85000
  0
LINE
  8
Bezugspunkte
 62
   1
 39
0.100
  6
CONTINUOUS
 10
31.85000
 20
85.85000
 30
 0
 11
31.85000
 21
87.85000
  0
LINE
  8
Bezugspunkte
 62
   1
 39
0.100
  6
CONTINUOUS
 10
120.85000
 20
86.85000
 30
 0
 11
122.85000
 21
86.85000
  0
LINE
  8
Bezugspunkte
 62
   1
 39
0.100
  6
CONTINUOUS
 10
121.85000
 20
85.85000
 30
 0
 11
121.85000
 21
87.85000
  0
ENDSEC
  0
EOF
