  0
SECTION
  2
HEADER
  9
$MEASUREMENT
  70
  0
  9
$INSUNITS
  70
  1
  0
ENDSEC
  0
SECTION
  2
TABLES
  0
TABLE
  2
LTYPE
 70
     1
  0
LTYPE
  2
CONTINUOUS
 70
    64
  3
Ausgezogene Linie
 72
    65
 73
     0
 40
0.0
  0
ENDTAB
  0
TABLE
  2
LAYER
 70
     3
  0
LAYER
  2
Kontur
 70
    64
 62
     7
  6
CONTINUOUS
  0
LAYER
  2
Gravur
 70
    64
 62
     7
  6
CONTINUOUS
  0
LAYER
  2
Bezugspunkte
 70
    64
 62
     1
  6
CONTINUOUS
  0
ENDTAB
  0
TABLE
  2
STYLE
 70
     1
  0
STYLE
  2
TXT
 70
    64
 40
0.0
 41
1.0
 50
0.0
 71
     0
 42
3.500000
  3
TXT
  0
ENDTAB
  0
ENDSEC
  0
SECTION
  2
BLOCKS
  0
ENDSEC
  0
SECTION
  2
ENTITIES
  0
LINE
  8
Kontur
 62
   7
 39
0.004
  6
CONTINUOUS
 10
3.44500
 20
8.73500
 30
 0
 11
0.04000
 21
8.73500
  0
ARC
  8
Kontur
 62
   7
 39
0.004
  6
CONTINUOUS
 10
0.04000
 20
8.69500
 30
 0
 40
0.04000
 50
90.00000
 51
180.00000
  0
LINE
  8
Kontur
 62
   7
 39
0.004
  6
CONTINUOUS
 10
0.00000
 20
8.69500
 30
 0
 11
0.00000
 21
0.04000
  0
ARC
  8
Kontur
 62
   7
 39
0.004
  6
CONTINUOUS
 10
0.04000
 20
0.04000
 30
 0
 40
0.04000
 50
180.00000
 51
270.00000
  0
LINE
  8
Kontur
 62
   7
 39
0.004
  6
CONTINUOUS
 10
0.04000
 20
0.00000
 30
 0
 11
3.44500
 21
0.00000
  0
ARC
  8
Kontur
 62
   7
 39
0.004
  6
CONTINUOUS
 10
3.44500
 20
0.04000
 30
 0
 40
0.04000
 50
-90.00000
 51
0.00000
  0
LINE
  8
Kontur
 62
   7
 39
0.004
  6
CONTINUOUS
 10
3.48500
 20
0.04000
 30
 0
 11
3.48500
 21
8.69500
  0
ARC
  8
Kontur
 62
   7
 39
0.004
  6
CONTINUOUS
 10
3.44500
 20
8.69500
 30
 0
 40
0.04000
 50
0.00000
 51
90.00000
  0
LINE
  8
Gravur
 62
   255
 39
0.008
  6
CONTINUOUS
 10
1.57457
 20
0.14256
 30
 0
 11
1.60008
 21
0.23705
  0
LINE
  8
Gravur
 62
   255
 39
0.008
  6
CONTINUOUS
 10
1.60008
 20
0.23705
 30
 0
 11
1.62559
 21
0.14256
  0
LINE
  8
Gravur
 62
   255
 39
0.008
  6
CONTINUOUS
 10
1.58307
 20
0.17091
 30
 0
 11
1.61709
 21
0.17091
  0
LINE
  8
Gravur
 62
   255
 39
0.008
  6
CONTINUOUS
 10
1.64969
 20
0.14256
 30
 0
 11
1.64969
 21
0.23705
  0
LINE
  8
Gravur
 62
   255
 39
0.008
  6
CONTINUOUS
 10
1.64969
 20
0.23705
 30
 0
 11
1.67732
 21
0.17091
  0
LINE
  8
Gravur
 62
   255
 39
0.008
  6
CONTINUOUS
 10
1.67732
 20
0.17091
 30
 0
 11
1.70496
 21
0.23705
  0
LINE
  8
Gravur
 62
   255
 39
0.008
  6
CONTINUOUS
 10
1.70496
 20
0.23705
 30
 0
 11
1.70496
 21
0.14256
  0
LINE
  8
Gravur
 62
   255
 39
0.008
  6
CONTINUOUS
 10
1.74748
 20
0.14256
 30
 0
 11
1.75012
 21
0.14276
  0
LINE
  8
Gravur
 62
   255
 39
0.008
  6
CONTINUOUS
 10
1.75012
 20
0.14276
 30
 0
 11
1.75268
 21
0.14335
  0
LINE
  8
Gravur
 62
   255
 39
0.008
  6
CONTINUOUS
 10
1.75268
 20
0.14335
 30
 0
 11
1.75516
 21
0.14437
  0
LINE
  8
Gravur
 62
   255
 39
0.008
  6
CONTINUOUS
 10
1.75516
 20
0.14437
 30
 0
 11
1.75748
 21
0.14579
  0
LINE
  8
Gravur
 62
   255
 39
0.008
  6
CONTINUOUS
 10
1.75748
 20
0.14579
 30
 0
 11
1.75957
 21
0.14752
  0
LINE
  8
Gravur
 62
   255
 39
0.008
  6
CONTINUOUS
 10
1.75957
 20
0.14752
 30
 0
 11
1.76146
 21
0.14961
  0
LINE
  8
Gravur
 62
   255
 39
0.008
  6
CONTINUOUS
 10
1.76146
 20
0.14961
 30
 0
 11
1.76299
 21
0.15193
  0
LINE
  8
Gravur
 62
   255
 39
0.008
  6
CONTINUOUS
 10
1.76299
 20
0.15193
 30
 0
 11
1.76429
 21
0.15449
  0
LINE
  8
Gravur
 62
   255
 39
0.008
  6
CONTINUOUS
 10
1.76429
 20
0.15449
 30
 0
 11
1.76520
 21
0.15724
  0
LINE
  8
Gravur
 62
   255
 39
0.008
  6
CONTINUOUS
 10
1.76520
 20
0.15724
 30
 0
 11
1.76575
 21
0.16012
  0
LINE
  8
Gravur
 62
   255
 39
0.008
  6
CONTINUOUS
 10
1.76575
 20
0.16012
 30
 0
 11
1.76591
 21
0.16303
  0
LINE
  8
Gravur
 62
   255
 39
0.008
  6
CONTINUOUS
 10
1.76591
 20
0.16303
 30
 0
 11
1.76591
 21
0.16303
  0
LINE
  8
Gravur
 62
   255
 39
0.008
  6
CONTINUOUS
 10
1.76591
 20
0.16303
 30
 0
 11
1.76591
 21
0.17012
  0
LINE
  8
Gravur
 62
   255
 39
0.008
  6
CONTINUOUS
 10
1.76591
 20
0.17012
 30
 0
 11
1.76571
 21
0.17299
  0
LINE
  8
Gravur
 62
   255
 39
0.008
  6
CONTINUOUS
 10
1.76571
 20
0.17299
 30
 0
 11
1.76508
 21
0.17579
  0
LINE
  8
Gravur
 62
   255
 39
0.008
  6
CONTINUOUS
 10
1.76508
 20
0.17579
 30
 0
 11
1.76417
 21
0.17843
  0
LINE
  8
Gravur
 62
   255
 39
0.008
  6
CONTINUOUS
 10
1.76417
 20
0.17843
 30
 0
 11
1.76291
 21
0.18094
  0
LINE
  8
Gravur
 62
   255
 39
0.008
  6
CONTINUOUS
 10
1.76291
 20
0.18094
 30
 0
 11
1.76130
 21
0.18319
  0
LINE
  8
Gravur
 62
   255
 39
0.008
  6
CONTINUOUS
 10
1.76130
 20
0.18319
 30
 0
 11
1.75941
 21
0.18520
  0
LINE
  8
Gravur
 62
   255
 39
0.008
  6
CONTINUOUS
 10
1.75941
 20
0.18520
 30
 0
 11
1.75732
 21
0.18685
  0
LINE
  8
Gravur
 62
   255
 39
0.008
  6
CONTINUOUS
 10
1.75732
 20
0.18685
 30
 0
 11
1.75504
 21
0.18819
  0
LINE
  8
Gravur
 62
   255
 39
0.008
  6
CONTINUOUS
 10
1.75504
 20
0.18819
 30
 0
 11
1.75260
 21
0.18913
  0
LINE
  8
Gravur
 62
   255
 39
0.008
  6
CONTINUOUS
 10
1.75260
 20
0.18913
 30
 0
 11
1.75008
 21
0.18969
  0
LINE
  8
Gravur
 62
   255
 39
0.008
  6
CONTINUOUS
 10
1.75008
 20
0.18969
 30
 0
 11
1.74748
 21
0.18980
  0
LINE
  8
Gravur
 62
   255
 39
0.008
  6
CONTINUOUS
 10
1.74748
 20
0.18980
 30
 0
 11
1.74748
 21
0.18980
  0
LINE
  8
Gravur
 62
   255
 39
0.008
  6
CONTINUOUS
 10
1.74748
 20
0.18980
 30
 0
 11
1.74988
 21
0.19000
  0
LINE
  8
Gravur
 62
   255
 39
0.008
  6
CONTINUOUS
 10
1.74988
 20
0.19000
 30
 0
 11
1.75228
 21
0.19055
  0
LINE
  8
Gravur
 62
   255
 39
0.008
  6
CONTINUOUS
 10
1.75228
 20
0.19055
 30
 0
 11
1.75457
 21
0.19150
  0
LINE
  8
Gravur
 62
   255
 39
0.008
  6
CONTINUOUS
 10
1.75457
 20
0.19150
 30
 0
 11
1.75669
 21
0.19276
  0
LINE
  8
Gravur
 62
   255
 39
0.008
  6
CONTINUOUS
 10
1.75669
 20
0.19276
 30
 0
 11
1.75866
 21
0.19437
  0
LINE
  8
Gravur
 62
   255
 39
0.008
  6
CONTINUOUS
 10
1.75866
 20
0.19437
 30
 0
 11
1.76039
 21
0.19630
  0
LINE
  8
Gravur
 62
   255
 39
0.008
  6
CONTINUOUS
 10
1.76039
 20
0.19630
 30
 0
 11
1.76185
 21
0.19846
  0
LINE
  8
Gravur
 62
   255
 39
0.008
  6
CONTINUOUS
 10
1.76185
 20
0.19846
 30
 0
 11
1.76295
 21
0.20083
  0
LINE
  8
Gravur
 62
   255
 39
0.008
  6
CONTINUOUS
 10
1.76295
 20
0.20083
 30
 0
 11
1.76382
 21
0.20335
  0
LINE
  8
Gravur
 62
   255
 39
0.008
  6
CONTINUOUS
 10
1.76382
 20
0.20335
 30
 0
 11
1.76433
 21
0.20602
  0
LINE
  8
Gravur
 62
   255
 39
0.008
  6
CONTINUOUS
 10
1.76433
 20
0.20602
 30
 0
 11
1.76449
 21
0.20870
  0
LINE
  8
Gravur
 62
   255
 39
0.008
  6
CONTINUOUS
 10
1.76449
 20
0.20870
 30
 0
 11
1.76449
 21
0.20870
  0
LINE
  8
Gravur
 62
   255
 39
0.008
  6
CONTINUOUS
 10
1.76449
 20
0.20870
 30
 0
 11
1.76449
 21
0.21815
  0
LINE
  8
Gravur
 62
   255
 39
0.008
  6
CONTINUOUS
 10
1.76449
 20
0.21815
 30
 0
 11
1.76433
 21
0.22098
  0
LINE
  8
Gravur
 62
   255
 39
0.008
  6
CONTINUOUS
 10
1.76433
 20
0.22098
 30
 0
 11
1.76374
 21
0.22370
  0
LINE
  8
Gravur
 62
   255
 39
0.008
  6
CONTINUOUS
 10
1.76374
 20
0.22370
 30
 0
 11
1.76280
 21
0.22634
  0
LINE
  8
Gravur
 62
   255
 39
0.008
  6
CONTINUOUS
 10
1.76280
 20
0.22634
 30
 0
 11
1.76154
 21
0.22878
  0
LINE
  8
Gravur
 62
   255
 39
0.008
  6
CONTINUOUS
 10
1.76154
 20
0.22878
 30
 0
 11
1.75996
 21
0.23098
  0
LINE
  8
Gravur
 62
   255
 39
0.008
  6
CONTINUOUS
 10
1.75996
 20
0.23098
 30
 0
 11
1.75807
 21
0.23291
  0
LINE
  8
Gravur
 62
   255
 39
0.008
  6
CONTINUOUS
 10
1.75807
 20
0.23291
 30
 0
 11
1.75598
 21
0.23453
  0
LINE
  8
Gravur
 62
   255
 39
0.008
  6
CONTINUOUS
 10
1.75598
 20
0.23453
 30
 0
 11
1.75370
 21
0.23575
  0
LINE
  8
Gravur
 62
   255
 39
0.008
  6
CONTINUOUS
 10
1.75370
 20
0.23575
 30
 0
 11
1.75126
 21
0.23657
  0
LINE
  8
Gravur
 62
   255
 39
0.008
  6
CONTINUOUS
 10
1.75126
 20
0.23657
 30
 0
 11
1.74874
 21
0.23701
  0
LINE
  8
Gravur
 62
   255
 39
0.008
  6
CONTINUOUS
 10
1.74874
 20
0.23701
 30
 0
 11
1.74622
 21
0.23701
  0
LINE
  8
Gravur
 62
   255
 39
0.008
  6
CONTINUOUS
 10
1.74622
 20
0.23701
 30
 0
 11
1.74370
 21
0.23657
  0
LINE
  8
Gravur
 62
   255
 39
0.008
  6
CONTINUOUS
 10
1.74370
 20
0.23657
 30
 0
 11
1.74126
 21
0.23575
  0
LINE
  8
Gravur
 62
   255
 39
0.008
  6
CONTINUOUS
 10
1.74126
 20
0.23575
 30
 0
 11
1.73898
 21
0.23453
  0
LINE
  8
Gravur
 62
   255
 39
0.008
  6
CONTINUOUS
 10
1.73898
 20
0.23453
 30
 0
 11
1.73689
 21
0.23291
  0
LINE
  8
Gravur
 62
   255
 39
0.008
  6
CONTINUOUS
 10
1.73689
 20
0.23291
 30
 0
 11
1.73500
 21
0.23098
  0
LINE
  8
Gravur
 62
   255
 39
0.008
  6
CONTINUOUS
 10
1.73500
 20
0.23098
 30
 0
 11
1.73343
 21
0.22878
  0
LINE
  8
Gravur
 62
   255
 39
0.008
  6
CONTINUOUS
 10
1.73343
 20
0.22878
 30
 0
 11
1.73217
 21
0.22634
  0
LINE
  8
Gravur
 62
   255
 39
0.008
  6
CONTINUOUS
 10
1.73217
 20
0.22634
 30
 0
 11
1.73122
 21
0.22370
  0
LINE
  8
Gravur
 62
   255
 39
0.008
  6
CONTINUOUS
 10
1.73122
 20
0.22370
 30
 0
 11
1.73063
 21
0.22098
  0
LINE
  8
Gravur
 62
   255
 39
0.008
  6
CONTINUOUS
 10
1.73063
 20
0.22098
 30
 0
 11
1.73047
 21
0.21815
  0
LINE
  8
Gravur
 62
   255
 39
0.008
  6
CONTINUOUS
 10
1.73047
 20
0.21815
 30
 0
 11
1.73047
 21
0.21815
  0
LINE
  8
Gravur
 62
   255
 39
0.008
  6
CONTINUOUS
 10
1.73047
 20
0.21815
 30
 0
 11
1.73047
 21
0.20870
  0
LINE
  8
Gravur
 62
   255
 39
0.008
  6
CONTINUOUS
 10
1.73047
 20
0.20870
 30
 0
 11
1.73063
 21
0.20602
  0
LINE
  8
Gravur
 62
   255
 39
0.008
  6
CONTINUOUS
 10
1.73063
 20
0.20602
 30
 0
 11
1.73114
 21
0.20335
  0
LINE
  8
Gravur
 62
   255
 39
0.008
  6
CONTINUOUS
 10
1.73114
 20
0.20335
 30
 0
 11
1.73201
 21
0.20083
  0
LINE
  8
Gravur
 62
   255
 39
0.008
  6
CONTINUOUS
 10
1.73201
 20
0.20083
 30
 0
 11
1.73311
 21
0.19846
  0
LINE
  8
Gravur
 62
   255
 39
0.008
  6
CONTINUOUS
 10
1.73311
 20
0.19846
 30
 0
 11
1.73457
 21
0.19630
  0
LINE
  8
Gravur
 62
   255
 39
0.008
  6
CONTINUOUS
 10
1.73457
 20
0.19630
 30
 0
 11
1.73630
 21
0.19437
  0
LINE
  8
Gravur
 62
   255
 39
0.008
  6
CONTINUOUS
 10
1.73630
 20
0.19437
 30
 0
 11
1.73827
 21
0.19276
  0
LINE
  8
Gravur
 62
   255
 39
0.008
  6
CONTINUOUS
 10
1.73827
 20
0.19276
 30
 0
 11
1.74039
 21
0.19150
  0
LINE
  8
Gravur
 62
   255
 39
0.008
  6
CONTINUOUS
 10
1.74039
 20
0.19150
 30
 0
 11
1.74268
 21
0.19055
  0
LINE
  8
Gravur
 62
   255
 39
0.008
  6
CONTINUOUS
 10
1.74268
 20
0.19055
 30
 0
 11
1.74508
 21
0.19000
  0
LINE
  8
Gravur
 62
   255
 39
0.008
  6
CONTINUOUS
 10
1.74508
 20
0.19000
 30
 0
 11
1.74748
 21
0.18980
  0
LINE
  8
Gravur
 62
   255
 39
0.008
  6
CONTINUOUS
 10
1.74748
 20
0.18980
 30
 0
 11
1.74748
 21
0.18980
  0
LINE
  8
Gravur
 62
   255
 39
0.008
  6
CONTINUOUS
 10
1.74748
 20
0.18980
 30
 0
 11
1.74488
 21
0.18969
  0
LINE
  8
Gravur
 62
   255
 39
0.008
  6
CONTINUOUS
 10
1.74488
 20
0.18969
 30
 0
 11
1.74236
 21
0.18913
  0
LINE
  8
Gravur
 62
   255
 39
0.008
  6
CONTINUOUS
 10
1.74236
 20
0.18913
 30
 0
 11
1.73992
 21
0.18819
  0
LINE
  8
Gravur
 62
   255
 39
0.008
  6
CONTINUOUS
 10
1.73992
 20
0.18819
 30
 0
 11
1.73764
 21
0.18685
  0
LINE
  8
Gravur
 62
   255
 39
0.008
  6
CONTINUOUS
 10
1.73764
 20
0.18685
 30
 0
 11
1.73555
 21
0.18520
  0
LINE
  8
Gravur
 62
   255
 39
0.008
  6
CONTINUOUS
 10
1.73555
 20
0.18520
 30
 0
 11
1.73366
 21
0.18319
  0
LINE
  8
Gravur
 62
   255
 39
0.008
  6
CONTINUOUS
 10
1.73366
 20
0.18319
 30
 0
 11
1.73205
 21
0.18094
  0
LINE
  8
Gravur
 62
   255
 39
0.008
  6
CONTINUOUS
 10
1.73205
 20
0.18094
 30
 0
 11
1.73079
 21
0.17846
  0
LINE
  8
Gravur
 62
   255
 39
0.008
  6
CONTINUOUS
 10
1.73079
 20
0.17846
 30
 0
 11
1.72988
 21
0.17579
  0
LINE
  8
Gravur
 62
   255
 39
0.008
  6
CONTINUOUS
 10
1.72988
 20
0.17579
 30
 0
 11
1.72925
 21
0.17299
  0
LINE
  8
Gravur
 62
   255
 39
0.008
  6
CONTINUOUS
 10
1.72925
 20
0.17299
 30
 0
 11
1.72906
 21
0.17012
  0
LINE
  8
Gravur
 62
   255
 39
0.008
  6
CONTINUOUS
 10
1.72906
 20
0.17012
 30
 0
 11
1.72906
 21
0.17012
  0
LINE
  8
Gravur
 62
   255
 39
0.008
  6
CONTINUOUS
 10
1.72906
 20
0.17012
 30
 0
 11
1.72906
 21
0.16303
  0
LINE
  8
Gravur
 62
   255
 39
0.008
  6
CONTINUOUS
 10
1.72906
 20
0.16303
 30
 0
 11
1.72921
 21
0.16012
  0
LINE
  8
Gravur
 62
   255
 39
0.008
  6
CONTINUOUS
 10
1.72921
 20
0.16012
 30
 0
 11
1.72976
 21
0.15724
  0
LINE
  8
Gravur
 62
   255
 39
0.008
  6
CONTINUOUS
 10
1.72976
 20
0.15724
 30
 0
 11
1.73067
 21
0.15449
  0
LINE
  8
Gravur
 62
   255
 39
0.008
  6
CONTINUOUS
 10
1.73067
 20
0.15449
 30
 0
 11
1.73197
 21
0.15193
  0
LINE
  8
Gravur
 62
   255
 39
0.008
  6
CONTINUOUS
 10
1.73197
 20
0.15193
 30
 0
 11
1.73350
 21
0.14961
  0
LINE
  8
Gravur
 62
   255
 39
0.008
  6
CONTINUOUS
 10
1.73350
 20
0.14961
 30
 0
 11
1.73539
 21
0.14752
  0
LINE
  8
Gravur
 62
   255
 39
0.008
  6
CONTINUOUS
 10
1.73539
 20
0.14752
 30
 0
 11
1.73748
 21
0.14579
  0
LINE
  8
Gravur
 62
   255
 39
0.008
  6
CONTINUOUS
 10
1.73748
 20
0.14579
 30
 0
 11
1.73980
 21
0.14437
  0
LINE
  8
Gravur
 62
   255
 39
0.008
  6
CONTINUOUS
 10
1.73980
 20
0.14437
 30
 0
 11
1.74228
 21
0.14335
  0
LINE
  8
Gravur
 62
   255
 39
0.008
  6
CONTINUOUS
 10
1.74228
 20
0.14335
 30
 0
 11
1.74484
 21
0.14276
  0
LINE
  8
Gravur
 62
   255
 39
0.008
  6
CONTINUOUS
 10
1.74484
 20
0.14276
 30
 0
 11
1.74748
 21
0.14256
  0
LINE
  8
Gravur
 62
   255
 39
0.008
  6
CONTINUOUS
 10
1.78929
 20
0.21343
 30
 0
 11
1.80843
 21
0.23705
  0
LINE
  8
Gravur
 62
   255
 39
0.008
  6
CONTINUOUS
 10
1.80843
 20
0.23705
 30
 0
 11
1.80843
 21
0.14256
  0
LINE
  8
Gravur
 62
   255
 39
0.008
  6
CONTINUOUS
 10
1.83181
 20
0.21579
 30
 0
 11
1.83177
 21
0.21870
  0
LINE
  8
Gravur
 62
   255
 39
0.008
  6
CONTINUOUS
 10
1.83177
 20
0.21870
 30
 0
 11
1.83213
 21
0.22161
  0
LINE
  8
Gravur
 62
   255
 39
0.008
  6
CONTINUOUS
 10
1.83213
 20
0.22161
 30
 0
 11
1.83283
 21
0.22441
  0
LINE
  8
Gravur
 62
   255
 39
0.008
  6
CONTINUOUS
 10
1.83283
 20
0.22441
 30
 0
 11
1.83398
 21
0.22705
  0
LINE
  8
Gravur
 62
   255
 39
0.008
  6
CONTINUOUS
 10
1.83398
 20
0.22705
 30
 0
 11
1.83539
 21
0.22949
  0
LINE
  8
Gravur
 62
   255
 39
0.008
  6
CONTINUOUS
 10
1.83539
 20
0.22949
 30
 0
 11
1.83717
 21
0.23165
  0
LINE
  8
Gravur
 62
   255
 39
0.008
  6
CONTINUOUS
 10
1.83717
 20
0.23165
 30
 0
 11
1.83917
 21
0.23350
  0
LINE
  8
Gravur
 62
   255
 39
0.008
  6
CONTINUOUS
 10
1.83917
 20
0.23350
 30
 0
 11
1.84146
 21
0.23500
  0
LINE
  8
Gravur
 62
   255
 39
0.008
  6
CONTINUOUS
 10
1.84146
 20
0.23500
 30
 0
 11
1.84390
 21
0.23610
  0
LINE
  8
Gravur
 62
   255
 39
0.008
  6
CONTINUOUS
 10
1.84390
 20
0.23610
 30
 0
 11
1.84646
 21
0.23681
  0
LINE
  8
Gravur
 62
   255
 39
0.008
  6
CONTINUOUS
 10
1.84646
 20
0.23681
 30
 0
 11
1.84882
 21
0.23705
  0
LINE
  8
Gravur
 62
   255
 39
0.008
  6
CONTINUOUS
 10
1.84882
 20
0.23705
 30
 0
 11
1.85154
 21
0.23697
  0
LINE
  8
Gravur
 62
   255
 39
0.008
  6
CONTINUOUS
 10
1.85154
 20
0.23697
 30
 0
 11
1.85429
 21
0.23646
  0
LINE
  8
Gravur
 62
   255
 39
0.008
  6
CONTINUOUS
 10
1.85429
 20
0.23646
 30
 0
 11
1.85685
 21
0.23547
  0
LINE
  8
Gravur
 62
   255
 39
0.008
  6
CONTINUOUS
 10
1.85685
 20
0.23547
 30
 0
 11
1.85929
 21
0.23409
  0
LINE
  8
Gravur
 62
   255
 39
0.008
  6
CONTINUOUS
 10
1.85929
 20
0.23409
 30
 0
 11
1.86154
 21
0.23232
  0
LINE
  8
Gravur
 62
   255
 39
0.008
  6
CONTINUOUS
 10
1.86154
 20
0.23232
 30
 0
 11
1.86354
 21
0.23020
  0
LINE
  8
Gravur
 62
   255
 39
0.008
  6
CONTINUOUS
 10
1.86354
 20
0.23020
 30
 0
 11
1.86520
 21
0.22780
  0
LINE
  8
Gravur
 62
   255
 39
0.008
  6
CONTINUOUS
 10
1.86520
 20
0.22780
 30
 0
 11
1.86650
 21
0.22512
  0
LINE
  8
Gravur
 62
   255
 39
0.008
  6
CONTINUOUS
 10
1.86650
 20
0.22512
 30
 0
 11
1.86744
 21
0.22228
  0
LINE
  8
Gravur
 62
   255
 39
0.008
  6
CONTINUOUS
 10
1.86744
 20
0.22228
 30
 0
 11
1.86807
 21
0.21929
  0
LINE
  8
Gravur
 62
   255
 39
0.008
  6
CONTINUOUS
 10
1.86807
 20
0.21929
 30
 0
 11
1.86823
 21
0.21626
  0
LINE
  8
Gravur
 62
   255
 39
0.008
  6
CONTINUOUS
 10
1.86823
 20
0.21626
 30
 0
 11
1.86799
 21
0.21323
  0
LINE
  8
Gravur
 62
   255
 39
0.008
  6
CONTINUOUS
 10
1.86799
 20
0.21323
 30
 0
 11
1.86736
 21
0.21028
  0
LINE
  8
Gravur
 62
   255
 39
0.008
  6
CONTINUOUS
 10
1.86736
 20
0.21028
 30
 0
 11
1.86634
 21
0.20744
  0
LINE
  8
Gravur
 62
   255
 39
0.008
  6
CONTINUOUS
 10
1.86634
 20
0.20744
 30
 0
 11
1.86583
 21
0.20634
  0
LINE
  8
Gravur
 62
   255
 39
0.008
  6
CONTINUOUS
 10
1.86583
 20
0.20634
 30
 0
 11
1.83181
 21
0.14256
  0
LINE
  8
Gravur
 62
   255
 39
0.008
  6
CONTINUOUS
 10
1.83181
 20
0.14256
 30
 0
 11
1.86795
 21
0.14256
  0
LINE
  8
Gravur
 62
   255
 39
0.008
  6
CONTINUOUS
 10
1.89134
 20
0.21343
 30
 0
 11
1.91047
 21
0.23705
  0
LINE
  8
Gravur
 62
   255
 39
0.008
  6
CONTINUOUS
 10
1.91047
 20
0.23705
 30
 0
 11
1.91047
 21
0.14256
  0
LINE
  8
Gravur
 62
   255
 39
0.016
  6
CONTINUOUS
 10
0.36886
 20
1.35512
 30
 0
 11
0.36886
 21
1.24488
  0
LINE
  8
Gravur
 62
   255
 39
0.016
  6
CONTINUOUS
 10
0.39693
 20
1.24488
 30
 0
 11
0.39693
 21
1.35512
  0
LINE
  8
Gravur
 62
   255
 39
0.016
  6
CONTINUOUS
 10
0.39693
 20
1.35512
 30
 0
 11
0.44157
 21
1.24488
  0
LINE
  8
Gravur
 62
   255
 39
0.016
  6
CONTINUOUS
 10
0.44157
 20
1.24488
 30
 0
 11
0.44157
 21
1.35512
  0
LINE
  8
Gravur
 62
   255
 39
0.016
  6
CONTINUOUS
 10
0.46886
 20
1.32756
 30
 0
 11
0.49118
 21
1.35512
  0
LINE
  8
Gravur
 62
   255
 39
0.016
  6
CONTINUOUS
 10
0.49118
 20
1.35512
 30
 0
 11
0.49118
 21
1.24488
  0
LINE
  8
Gravur
 62
   255
 39
0.016
  6
CONTINUOUS
 10
2.95996
 20
1.26969
 30
 0
 11
2.96024
 21
1.26598
  0
LINE
  8
Gravur
 62
   255
 39
0.016
  6
CONTINUOUS
 10
2.96024
 20
1.26598
 30
 0
 11
2.96094
 21
1.26236
  0
LINE
  8
Gravur
 62
   255
 39
0.016
  6
CONTINUOUS
 10
2.96094
 20
1.26236
 30
 0
 11
2.96217
 21
1.25894
  0
LINE
  8
Gravur
 62
   255
 39
0.016
  6
CONTINUOUS
 10
2.96217
 20
1.25894
 30
 0
 11
2.96382
 21
1.25571
  0
LINE
  8
Gravur
 62
   255
 39
0.016
  6
CONTINUOUS
 10
2.96382
 20
1.25571
 30
 0
 11
2.96591
 21
1.25280
  0
LINE
  8
Gravur
 62
   255
 39
0.016
  6
CONTINUOUS
 10
2.96591
 20
1.25280
 30
 0
 11
2.96839
 21
1.25028
  0
LINE
  8
Gravur
 62
   255
 39
0.016
  6
CONTINUOUS
 10
2.96839
 20
1.25028
 30
 0
 11
2.97114
 21
1.24819
  0
LINE
  8
Gravur
 62
   255
 39
0.016
  6
CONTINUOUS
 10
2.97114
 20
1.24819
 30
 0
 11
2.97413
 21
1.24661
  0
LINE
  8
Gravur
 62
   255
 39
0.016
  6
CONTINUOUS
 10
2.97413
 20
1.24661
 30
 0
 11
2.97732
 21
1.24551
  0
LINE
  8
Gravur
 62
   255
 39
0.016
  6
CONTINUOUS
 10
2.97732
 20
1.24551
 30
 0
 11
2.98063
 21
1.24496
  0
LINE
  8
Gravur
 62
   255
 39
0.016
  6
CONTINUOUS
 10
2.98063
 20
1.24496
 30
 0
 11
2.98398
 21
1.24496
  0
LINE
  8
Gravur
 62
   255
 39
0.016
  6
CONTINUOUS
 10
2.98398
 20
1.24496
 30
 0
 11
2.98724
 21
1.24551
  0
LINE
  8
Gravur
 62
   255
 39
0.016
  6
CONTINUOUS
 10
2.98724
 20
1.24551
 30
 0
 11
2.99043
 21
1.24661
  0
LINE
  8
Gravur
 62
   255
 39
0.016
  6
CONTINUOUS
 10
2.99043
 20
1.24661
 30
 0
 11
2.99346
 21
1.24819
  0
LINE
  8
Gravur
 62
   255
 39
0.016
  6
CONTINUOUS
 10
2.99346
 20
1.24819
 30
 0
 11
2.99622
 21
1.25028
  0
LINE
  8
Gravur
 62
   255
 39
0.016
  6
CONTINUOUS
 10
2.99622
 20
1.25028
 30
 0
 11
2.99866
 21
1.25280
  0
LINE
  8
Gravur
 62
   255
 39
0.016
  6
CONTINUOUS
 10
2.99866
 20
1.25280
 30
 0
 11
3.00075
 21
1.25571
  0
LINE
  8
Gravur
 62
   255
 39
0.016
  6
CONTINUOUS
 10
3.00075
 20
1.25571
 30
 0
 11
3.00240
 21
1.25894
  0
LINE
  8
Gravur
 62
   255
 39
0.016
  6
CONTINUOUS
 10
3.00240
 20
1.25894
 30
 0
 11
3.00362
 21
1.26236
  0
LINE
  8
Gravur
 62
   255
 39
0.016
  6
CONTINUOUS
 10
3.00362
 20
1.26236
 30
 0
 11
3.00437
 21
1.26598
  0
LINE
  8
Gravur
 62
   255
 39
0.016
  6
CONTINUOUS
 10
3.00437
 20
1.26598
 30
 0
 11
3.00461
 21
1.26969
  0
LINE
  8
Gravur
 62
   255
 39
0.016
  6
CONTINUOUS
 10
3.00461
 20
1.26969
 30
 0
 11
3.00461
 21
1.26969
  0
LINE
  8
Gravur
 62
   255
 39
0.016
  6
CONTINUOUS
 10
3.00461
 20
1.26969
 30
 0
 11
3.00461
 21
1.33031
  0
LINE
  8
Gravur
 62
   255
 39
0.016
  6
CONTINUOUS
 10
3.00461
 20
1.33031
 30
 0
 11
3.00437
 21
1.33402
  0
LINE
  8
Gravur
 62
   255
 39
0.016
  6
CONTINUOUS
 10
3.00437
 20
1.33402
 30
 0
 11
3.00362
 21
1.33764
  0
LINE
  8
Gravur
 62
   255
 39
0.016
  6
CONTINUOUS
 10
3.00362
 20
1.33764
 30
 0
 11
3.00240
 21
1.34106
  0
LINE
  8
Gravur
 62
   255
 39
0.016
  6
CONTINUOUS
 10
3.00240
 20
1.34106
 30
 0
 11
3.00075
 21
1.34429
  0
LINE
  8
Gravur
 62
   255
 39
0.016
  6
CONTINUOUS
 10
3.00075
 20
1.34429
 30
 0
 11
2.99866
 21
1.34720
  0
LINE
  8
Gravur
 62
   255
 39
0.016
  6
CONTINUOUS
 10
2.99866
 20
1.34720
 30
 0
 11
2.99622
 21
1.34972
  0
LINE
  8
Gravur
 62
   255
 39
0.016
  6
CONTINUOUS
 10
2.99622
 20
1.34972
 30
 0
 11
2.99346
 21
1.35181
  0
LINE
  8
Gravur
 62
   255
 39
0.016
  6
CONTINUOUS
 10
2.99346
 20
1.35181
 30
 0
 11
2.99043
 21
1.35339
  0
LINE
  8
Gravur
 62
   255
 39
0.016
  6
CONTINUOUS
 10
2.99043
 20
1.35339
 30
 0
 11
2.98724
 21
1.35449
  0
LINE
  8
Gravur
 62
   255
 39
0.016
  6
CONTINUOUS
 10
2.98724
 20
1.35449
 30
 0
 11
2.98398
 21
1.35504
  0
LINE
  8
Gravur
 62
   255
 39
0.016
  6
CONTINUOUS
 10
2.98398
 20
1.35504
 30
 0
 11
2.98063
 21
1.35504
  0
LINE
  8
Gravur
 62
   255
 39
0.016
  6
CONTINUOUS
 10
2.98063
 20
1.35504
 30
 0
 11
2.97732
 21
1.35449
  0
LINE
  8
Gravur
 62
   255
 39
0.016
  6
CONTINUOUS
 10
2.97732
 20
1.35449
 30
 0
 11
2.97413
 21
1.35339
  0
LINE
  8
Gravur
 62
   255
 39
0.016
  6
CONTINUOUS
 10
2.97413
 20
1.35339
 30
 0
 11
2.97114
 21
1.35181
  0
LINE
  8
Gravur
 62
   255
 39
0.016
  6
CONTINUOUS
 10
2.97114
 20
1.35181
 30
 0
 11
2.96839
 21
1.34972
  0
LINE
  8
Gravur
 62
   255
 39
0.016
  6
CONTINUOUS
 10
2.96839
 20
1.34972
 30
 0
 11
2.96591
 21
1.34720
  0
LINE
  8
Gravur
 62
   255
 39
0.016
  6
CONTINUOUS
 10
2.96591
 20
1.34720
 30
 0
 11
2.96382
 21
1.34429
  0
LINE
  8
Gravur
 62
   255
 39
0.016
  6
CONTINUOUS
 10
2.96382
 20
1.34429
 30
 0
 11
2.96217
 21
1.34106
  0
LINE
  8
Gravur
 62
   255
 39
0.016
  6
CONTINUOUS
 10
2.96217
 20
1.34106
 30
 0
 11
2.96094
 21
1.33764
  0
LINE
  8
Gravur
 62
   255
 39
0.016
  6
CONTINUOUS
 10
2.96094
 20
1.33764
 30
 0
 11
2.96024
 21
1.33402
  0
LINE
  8
Gravur
 62
   255
 39
0.016
  6
CONTINUOUS
 10
2.96024
 20
1.33402
 30
 0
 11
2.95996
 21
1.33031
  0
LINE
  8
Gravur
 62
   255
 39
0.016
  6
CONTINUOUS
 10
2.95996
 20
1.33031
 30
 0
 11
2.95996
 21
1.33031
  0
LINE
  8
Gravur
 62
   255
 39
0.016
  6
CONTINUOUS
 10
2.95996
 20
1.33031
 30
 0
 11
2.95996
 21
1.26969
  0
LINE
  8
Gravur
 62
   255
 39
0.016
  6
CONTINUOUS
 10
3.03272
 20
1.35512
 30
 0
 11
3.03272
 21
1.26969
  0
LINE
  8
Gravur
 62
   255
 39
0.016
  6
CONTINUOUS
 10
3.03272
 20
1.26969
 30
 0
 11
3.03295
 21
1.26598
  0
LINE
  8
Gravur
 62
   255
 39
0.016
  6
CONTINUOUS
 10
3.03295
 20
1.26598
 30
 0
 11
3.03370
 21
1.26236
  0
LINE
  8
Gravur
 62
   255
 39
0.016
  6
CONTINUOUS
 10
3.03370
 20
1.26236
 30
 0
 11
3.03492
 21
1.25894
  0
LINE
  8
Gravur
 62
   255
 39
0.016
  6
CONTINUOUS
 10
3.03492
 20
1.25894
 30
 0
 11
3.03657
 21
1.25571
  0
LINE
  8
Gravur
 62
   255
 39
0.016
  6
CONTINUOUS
 10
3.03657
 20
1.25571
 30
 0
 11
3.03866
 21
1.25280
  0
LINE
  8
Gravur
 62
   255
 39
0.016
  6
CONTINUOUS
 10
3.03866
 20
1.25280
 30
 0
 11
3.04110
 21
1.25028
  0
LINE
  8
Gravur
 62
   255
 39
0.016
  6
CONTINUOUS
 10
3.04110
 20
1.25028
 30
 0
 11
3.04386
 21
1.24819
  0
LINE
  8
Gravur
 62
   255
 39
0.016
  6
CONTINUOUS
 10
3.04386
 20
1.24819
 30
 0
 11
3.04689
 21
1.24661
  0
LINE
  8
Gravur
 62
   255
 39
0.016
  6
CONTINUOUS
 10
3.04689
 20
1.24661
 30
 0
 11
3.05008
 21
1.24551
  0
LINE
  8
Gravur
 62
   255
 39
0.016
  6
CONTINUOUS
 10
3.05008
 20
1.24551
 30
 0
 11
3.05339
 21
1.24496
  0
LINE
  8
Gravur
 62
   255
 39
0.016
  6
CONTINUOUS
 10
3.05339
 20
1.24496
 30
 0
 11
3.05669
 21
1.24496
  0
LINE
  8
Gravur
 62
   255
 39
0.016
  6
CONTINUOUS
 10
3.05669
 20
1.24496
 30
 0
 11
3.06000
 21
1.24551
  0
LINE
  8
Gravur
 62
   255
 39
0.016
  6
CONTINUOUS
 10
3.06000
 20
1.24551
 30
 0
 11
3.06319
 21
1.24661
  0
LINE
  8
Gravur
 62
   255
 39
0.016
  6
CONTINUOUS
 10
3.06319
 20
1.24661
 30
 0
 11
3.06622
 21
1.24819
  0
LINE
  8
Gravur
 62
   255
 39
0.016
  6
CONTINUOUS
 10
3.06622
 20
1.24819
 30
 0
 11
3.06898
 21
1.25028
  0
LINE
  8
Gravur
 62
   255
 39
0.016
  6
CONTINUOUS
 10
3.06898
 20
1.25028
 30
 0
 11
3.07142
 21
1.25280
  0
LINE
  8
Gravur
 62
   255
 39
0.016
  6
CONTINUOUS
 10
3.07142
 20
1.25280
 30
 0
 11
3.07350
 21
1.25571
  0
LINE
  8
Gravur
 62
   255
 39
0.016
  6
CONTINUOUS
 10
3.07350
 20
1.25571
 30
 0
 11
3.07516
 21
1.25894
  0
LINE
  8
Gravur
 62
   255
 39
0.016
  6
CONTINUOUS
 10
3.07516
 20
1.25894
 30
 0
 11
3.07638
 21
1.26236
  0
LINE
  8
Gravur
 62
   255
 39
0.016
  6
CONTINUOUS
 10
3.07638
 20
1.26236
 30
 0
 11
3.07713
 21
1.26598
  0
LINE
  8
Gravur
 62
   255
 39
0.016
  6
CONTINUOUS
 10
3.07713
 20
1.26598
 30
 0
 11
3.07736
 21
1.26969
  0
LINE
  8
Gravur
 62
   255
 39
0.016
  6
CONTINUOUS
 10
3.07736
 20
1.26969
 30
 0
 11
3.07736
 21
1.26969
  0
LINE
  8
Gravur
 62
   255
 39
0.016
  6
CONTINUOUS
 10
3.07736
 20
1.26969
 30
 0
 11
3.07736
 21
1.35512
  0
LINE
  8
Gravur
 62
   255
 39
0.016
  6
CONTINUOUS
 10
3.10547
 20
1.35512
 30
 0
 11
3.15012
 21
1.35512
  0
LINE
  8
Gravur
 62
   255
 39
0.016
  6
CONTINUOUS
 10
3.15012
 20
1.35512
 30
 0
 11
3.12780
 21
1.35512
  0
LINE
  8
Gravur
 62
   255
 39
0.016
  6
CONTINUOUS
 10
3.12780
 20
1.35512
 30
 0
 11
3.12780
 21
1.24488
  0
LINE
  8
Gravur
 62
   255
 39
0.016
  6
CONTINUOUS
 10
1.23378
 20
1.35512
 30
 0
 11
1.23378
 21
1.24488
  0
LINE
  8
Gravur
 62
   255
 39
0.016
  6
CONTINUOUS
 10
1.26189
 20
1.24488
 30
 0
 11
1.26189
 21
1.35512
  0
LINE
  8
Gravur
 62
   255
 39
0.016
  6
CONTINUOUS
 10
1.26189
 20
1.35512
 30
 0
 11
1.30654
 21
1.24488
  0
LINE
  8
Gravur
 62
   255
 39
0.016
  6
CONTINUOUS
 10
1.30654
 20
1.24488
 30
 0
 11
1.30654
 21
1.35512
  0
LINE
  8
Gravur
 62
   255
 39
0.016
  6
CONTINUOUS
 10
1.33382
 20
1.33031
 30
 0
 11
1.33378
 21
1.33362
  0
LINE
  8
Gravur
 62
   255
 39
0.016
  6
CONTINUOUS
 10
1.33378
 20
1.33362
 30
 0
 11
1.33413
 21
1.33689
  0
LINE
  8
Gravur
 62
   255
 39
0.016
  6
CONTINUOUS
 10
1.33413
 20
1.33689
 30
 0
 11
1.33496
 21
1.34008
  0
LINE
  8
Gravur
 62
   255
 39
0.016
  6
CONTINUOUS
 10
1.33496
 20
1.34008
 30
 0
 11
1.33614
 21
1.34311
  0
LINE
  8
Gravur
 62
   255
 39
0.016
  6
CONTINUOUS
 10
1.33614
 20
1.34311
 30
 0
 11
1.33776
 21
1.34591
  0
LINE
  8
Gravur
 62
   255
 39
0.016
  6
CONTINUOUS
 10
1.33776
 20
1.34591
 30
 0
 11
1.33969
 21
1.34839
  0
LINE
  8
Gravur
 62
   255
 39
0.016
  6
CONTINUOUS
 10
1.33969
 20
1.34839
 30
 0
 11
1.34193
 21
1.35059
  0
LINE
  8
Gravur
 62
   255
 39
0.016
  6
CONTINUOUS
 10
1.34193
 20
1.35059
 30
 0
 11
1.34445
 21
1.35236
  0
LINE
  8
Gravur
 62
   255
 39
0.016
  6
CONTINUOUS
 10
1.34445
 20
1.35236
 30
 0
 11
1.34713
 21
1.35374
  0
LINE
  8
Gravur
 62
   255
 39
0.016
  6
CONTINUOUS
 10
1.34713
 20
1.35374
 30
 0
 11
1.35000
 21
1.35465
  0
LINE
  8
Gravur
 62
   255
 39
0.016
  6
CONTINUOUS
 10
1.35000
 20
1.35465
 30
 0
 11
1.35295
 21
1.35508
  0
LINE
  8
Gravur
 62
   255
 39
0.016
  6
CONTINUOUS
 10
1.35295
 20
1.35508
 30
 0
 11
1.35366
 21
1.35512
  0
LINE
  8
Gravur
 62
   255
 39
0.016
  6
CONTINUOUS
 10
1.35366
 20
1.35512
 30
 0
 11
1.35685
 21
1.35504
  0
LINE
  8
Gravur
 62
   255
 39
0.016
  6
CONTINUOUS
 10
1.35685
 20
1.35504
 30
 0
 11
1.36000
 21
1.35441
  0
LINE
  8
Gravur
 62
   255
 39
0.016
  6
CONTINUOUS
 10
1.36000
 20
1.35441
 30
 0
 11
1.36303
 21
1.35327
  0
LINE
  8
Gravur
 62
   255
 39
0.016
  6
CONTINUOUS
 10
1.36303
 20
1.35327
 30
 0
 11
1.36587
 21
1.35165
  0
LINE
  8
Gravur
 62
   255
 39
0.016
  6
CONTINUOUS
 10
1.36587
 20
1.35165
 30
 0
 11
1.36850
 21
1.34961
  0
LINE
  8
Gravur
 62
   255
 39
0.016
  6
CONTINUOUS
 10
1.36850
 20
1.34961
 30
 0
 11
1.37079
 21
1.34713
  0
LINE
  8
Gravur
 62
   255
 39
0.016
  6
CONTINUOUS
 10
1.37079
 20
1.34713
 30
 0
 11
1.37276
 21
1.34433
  0
LINE
  8
Gravur
 62
   255
 39
0.016
  6
CONTINUOUS
 10
1.37276
 20
1.34433
 30
 0
 11
1.37429
 21
1.34122
  0
LINE
  8
Gravur
 62
   255
 39
0.016
  6
CONTINUOUS
 10
1.37429
 20
1.34122
 30
 0
 11
1.37539
 21
1.33787
  0
LINE
  8
Gravur
 62
   255
 39
0.016
  6
CONTINUOUS
 10
1.37539
 20
1.33787
 30
 0
 11
1.37610
 21
1.33441
  0
LINE
  8
Gravur
 62
   255
 39
0.016
  6
CONTINUOUS
 10
1.37610
 20
1.33441
 30
 0
 11
1.37630
 21
1.33087
  0
LINE
  8
Gravur
 62
   255
 39
0.016
  6
CONTINUOUS
 10
1.37630
 20
1.33087
 30
 0
 11
1.37602
 21
1.32732
  0
LINE
  8
Gravur
 62
   255
 39
0.016
  6
CONTINUOUS
 10
1.37602
 20
1.32732
 30
 0
 11
1.37528
 21
1.32386
  0
LINE
  8
Gravur
 62
   255
 39
0.016
  6
CONTINUOUS
 10
1.37528
 20
1.32386
 30
 0
 11
1.37406
 21
1.32055
  0
LINE
  8
Gravur
 62
   255
 39
0.016
  6
CONTINUOUS
 10
1.37406
 20
1.32055
 30
 0
 11
1.37350
 21
1.31929
  0
LINE
  8
Gravur
 62
   255
 39
0.016
  6
CONTINUOUS
 10
1.37350
 20
1.31929
 30
 0
 11
1.33382
 21
1.24488
  0
LINE
  8
Gravur
 62
   255
 39
0.016
  6
CONTINUOUS
 10
1.33382
 20
1.24488
 30
 0
 11
1.37598
 21
1.24488
  0
LINE
  8
Gravur
 62
   255
 39
0.008
  6
CONTINUOUS
 10
1.42185
 20
0.31098
 30
 0
 11
1.45374
 21
0.42909
  0
LINE
  8
Gravur
 62
   255
 39
0.008
  6
CONTINUOUS
 10
1.45374
 20
0.42909
 30
 0
 11
1.48563
 21
0.31098
  0
LINE
  8
Gravur
 62
   255
 39
0.008
  6
CONTINUOUS
 10
1.43248
 20
0.34642
 30
 0
 11
1.47500
 21
0.34642
  0
LINE
  8
Gravur
 62
   255
 39
0.008
  6
CONTINUOUS
 10
1.51575
 20
0.31098
 30
 0
 11
1.51575
 21
0.42909
  0
LINE
  8
Gravur
 62
   255
 39
0.008
  6
CONTINUOUS
 10
1.51575
 20
0.42909
 30
 0
 11
1.55028
 21
0.34642
  0
LINE
  8
Gravur
 62
   255
 39
0.008
  6
CONTINUOUS
 10
1.55028
 20
0.34642
 30
 0
 11
1.58484
 21
0.42909
  0
LINE
  8
Gravur
 62
   255
 39
0.008
  6
CONTINUOUS
 10
1.58484
 20
0.42909
 30
 0
 11
1.58484
 21
0.31098
  0
LINE
  8
Gravur
 62
   255
 39
0.008
  6
CONTINUOUS
 10
1.61496
 20
0.34051
 30
 0
 11
1.61524
 21
0.33610
  0
LINE
  8
Gravur
 62
   255
 39
0.008
  6
CONTINUOUS
 10
1.61524
 20
0.33610
 30
 0
 11
1.61614
 21
0.33181
  0
LINE
  8
Gravur
 62
   255
 39
0.008
  6
CONTINUOUS
 10
1.61614
 20
0.33181
 30
 0
 11
1.61760
 21
0.32772
  0
LINE
  8
Gravur
 62
   255
 39
0.008
  6
CONTINUOUS
 10
1.61760
 20
0.32772
 30
 0
 11
1.61957
 21
0.32390
  0
LINE
  8
Gravur
 62
   255
 39
0.008
  6
CONTINUOUS
 10
1.61957
 20
0.32390
 30
 0
 11
1.62205
 21
0.32043
  0
LINE
  8
Gravur
 62
   255
 39
0.008
  6
CONTINUOUS
 10
1.62205
 20
0.32043
 30
 0
 11
1.62496
 21
0.31744
  0
LINE
  8
Gravur
 62
   255
 39
0.008
  6
CONTINUOUS
 10
1.62496
 20
0.31744
 30
 0
 11
1.62823
 21
0.31492
  0
LINE
  8
Gravur
 62
   255
 39
0.008
  6
CONTINUOUS
 10
1.62823
 20
0.31492
 30
 0
 11
1.63181
 21
0.31303
  0
LINE
  8
Gravur
 62
   255
 39
0.008
  6
CONTINUOUS
 10
1.63181
 20
0.31303
 30
 0
 11
1.63563
 21
0.31173
  0
LINE
  8
Gravur
 62
   255
 39
0.008
  6
CONTINUOUS
 10
1.63563
 20
0.31173
 30
 0
 11
1.63957
 21
0.31106
  0
LINE
  8
Gravur
 62
   255
 39
0.008
  6
CONTINUOUS
 10
1.63957
 20
0.31106
 30
 0
 11
1.64350
 21
0.31106
  0
LINE
  8
Gravur
 62
   255
 39
0.008
  6
CONTINUOUS
 10
1.64350
 20
0.31106
 30
 0
 11
1.64744
 21
0.31173
  0
LINE
  8
Gravur
 62
   255
 39
0.008
  6
CONTINUOUS
 10
1.64744
 20
0.31173
 30
 0
 11
1.65126
 21
0.31303
  0
LINE
  8
Gravur
 62
   255
 39
0.008
  6
CONTINUOUS
 10
1.65126
 20
0.31303
 30
 0
 11
1.65480
 21
0.31492
  0
LINE
  8
Gravur
 62
   255
 39
0.008
  6
CONTINUOUS
 10
1.65480
 20
0.31492
 30
 0
 11
1.65811
 21
0.31744
  0
LINE
  8
Gravur
 62
   255
 39
0.008
  6
CONTINUOUS
 10
1.65811
 20
0.31744
 30
 0
 11
1.66102
 21
0.32043
  0
LINE
  8
Gravur
 62
   255
 39
0.008
  6
CONTINUOUS
 10
1.66102
 20
0.32043
 30
 0
 11
1.66350
 21
0.32390
  0
LINE
  8
Gravur
 62
   255
 39
0.008
  6
CONTINUOUS
 10
1.66350
 20
0.32390
 30
 0
 11
1.66547
 21
0.32772
  0
LINE
  8
Gravur
 62
   255
 39
0.008
  6
CONTINUOUS
 10
1.66547
 20
0.32772
 30
 0
 11
1.66693
 21
0.33181
  0
LINE
  8
Gravur
 62
   255
 39
0.008
  6
CONTINUOUS
 10
1.66693
 20
0.33181
 30
 0
 11
1.66783
 21
0.33610
  0
LINE
  8
Gravur
 62
   255
 39
0.008
  6
CONTINUOUS
 10
1.66783
 20
0.33610
 30
 0
 11
1.66811
 21
0.34051
  0
LINE
  8
Gravur
 62
   255
 39
0.008
  6
CONTINUOUS
 10
1.66811
 20
0.34051
 30
 0
 11
1.66811
 21
0.34051
  0
LINE
  8
Gravur
 62
   255
 39
0.008
  6
CONTINUOUS
 10
1.66811
 20
0.34051
 30
 0
 11
1.66787
 21
0.34472
  0
LINE
  8
Gravur
 62
   255
 39
0.008
  6
CONTINUOUS
 10
1.66787
 20
0.34472
 30
 0
 11
1.66709
 21
0.34886
  0
LINE
  8
Gravur
 62
   255
 39
0.008
  6
CONTINUOUS
 10
1.66709
 20
0.34886
 30
 0
 11
1.66575
 21
0.35280
  0
LINE
  8
Gravur
 62
   255
 39
0.008
  6
CONTINUOUS
 10
1.66575
 20
0.35280
 30
 0
 11
1.66394
 21
0.35650
  0
LINE
  8
Gravur
 62
   255
 39
0.008
  6
CONTINUOUS
 10
1.66394
 20
0.35650
 30
 0
 11
1.66165
 21
0.35988
  0
LINE
  8
Gravur
 62
   255
 39
0.008
  6
CONTINUOUS
 10
1.66165
 20
0.35988
 30
 0
 11
1.65898
 21
0.36287
  0
LINE
  8
Gravur
 62
   255
 39
0.008
  6
CONTINUOUS
 10
1.65898
 20
0.36287
 30
 0
 11
1.65591
 21
0.36539
  0
LINE
  8
Gravur
 62
   255
 39
0.008
  6
CONTINUOUS
 10
1.65591
 20
0.36539
 30
 0
 11
1.65260
 21
0.36740
  0
LINE
  8
Gravur
 62
   255
 39
0.008
  6
CONTINUOUS
 10
1.65260
 20
0.36740
 30
 0
 11
1.64906
 21
0.36890
  0
LINE
  8
Gravur
 62
   255
 39
0.008
  6
CONTINUOUS
 10
1.64906
 20
0.36890
 30
 0
 11
1.64531
 21
0.36976
  0
LINE
  8
Gravur
 62
   255
 39
0.008
  6
CONTINUOUS
 10
1.64531
 20
0.36976
 30
 0
 11
1.64154
 21
0.37004
  0
LINE
  8
Gravur
 62
   255
 39
0.008
  6
CONTINUOUS
 10
1.64154
 20
0.37004
 30
 0
 11
1.64154
 21
0.37004
  0
LINE
  8
Gravur
 62
   255
 39
0.008
  6
CONTINUOUS
 10
1.64154
 20
0.37004
 30
 0
 11
1.63756
 21
0.37035
  0
LINE
  8
Gravur
 62
   255
 39
0.008
  6
CONTINUOUS
 10
1.63756
 20
0.37035
 30
 0
 11
1.63370
 21
0.37134
  0
LINE
  8
Gravur
 62
   255
 39
0.008
  6
CONTINUOUS
 10
1.63370
 20
0.37134
 30
 0
 11
1.63000
 21
0.37295
  0
LINE
  8
Gravur
 62
   255
 39
0.008
  6
CONTINUOUS
 10
1.63000
 20
0.37295
 30
 0
 11
1.62657
 21
0.37516
  0
LINE
  8
Gravur
 62
   255
 39
0.008
  6
CONTINUOUS
 10
1.62657
 20
0.37516
 30
 0
 11
1.62346
 21
0.37791
  0
LINE
  8
Gravur
 62
   255
 39
0.008
  6
CONTINUOUS
 10
1.62346
 20
0.37791
 30
 0
 11
1.62079
 21
0.38114
  0
LINE
  8
Gravur
 62
   255
 39
0.008
  6
CONTINUOUS
 10
1.62079
 20
0.38114
 30
 0
 11
1.61850
 21
0.38480
  0
LINE
  8
Gravur
 62
   255
 39
0.008
  6
CONTINUOUS
 10
1.61850
 20
0.38480
 30
 0
 11
1.61681
 21
0.38878
  0
LINE
  8
Gravur
 62
   255
 39
0.008
  6
CONTINUOUS
 10
1.61681
 20
0.38878
 30
 0
 11
1.61563
 21
0.39299
  0
LINE
  8
Gravur
 62
   255
 39
0.008
  6
CONTINUOUS
 10
1.61563
 20
0.39299
 30
 0
 11
1.61504
 21
0.39736
  0
LINE
  8
Gravur
 62
   255
 39
0.008
  6
CONTINUOUS
 10
1.61504
 20
0.39736
 30
 0
 11
1.61504
 21
0.40177
  0
LINE
  8
Gravur
 62
   255
 39
0.008
  6
CONTINUOUS
 10
1.61504
 20
0.40177
 30
 0
 11
1.61563
 21
0.40614
  0
LINE
  8
Gravur
 62
   255
 39
0.008
  6
CONTINUOUS
 10
1.61563
 20
0.40614
 30
 0
 11
1.61681
 21
0.41035
  0
LINE
  8
Gravur
 62
   255
 39
0.008
  6
CONTINUOUS
 10
1.61681
 20
0.41035
 30
 0
 11
1.61850
 21
0.41433
  0
LINE
  8
Gravur
 62
   255
 39
0.008
  6
CONTINUOUS
 10
1.61850
 20
0.41433
 30
 0
 11
1.62079
 21
0.41799
  0
LINE
  8
Gravur
 62
   255
 39
0.008
  6
CONTINUOUS
 10
1.62079
 20
0.41799
 30
 0
 11
1.62346
 21
0.42122
  0
LINE
  8
Gravur
 62
   255
 39
0.008
  6
CONTINUOUS
 10
1.62346
 20
0.42122
 30
 0
 11
1.62657
 21
0.42398
  0
LINE
  8
Gravur
 62
   255
 39
0.008
  6
CONTINUOUS
 10
1.62657
 20
0.42398
 30
 0
 11
1.63000
 21
0.42618
  0
LINE
  8
Gravur
 62
   255
 39
0.008
  6
CONTINUOUS
 10
1.63000
 20
0.42618
 30
 0
 11
1.63370
 21
0.42780
  0
LINE
  8
Gravur
 62
   255
 39
0.008
  6
CONTINUOUS
 10
1.63370
 20
0.42780
 30
 0
 11
1.63756
 21
0.42878
  0
LINE
  8
Gravur
 62
   255
 39
0.008
  6
CONTINUOUS
 10
1.63756
 20
0.42878
 30
 0
 11
1.64154
 21
0.42909
  0
LINE
  8
Gravur
 62
   255
 39
0.008
  6
CONTINUOUS
 10
1.64154
 20
0.42909
 30
 0
 11
1.64154
 21
0.42909
  0
LINE
  8
Gravur
 62
   255
 39
0.008
  6
CONTINUOUS
 10
1.64154
 20
0.42909
 30
 0
 11
1.64539
 21
0.42882
  0
LINE
  8
Gravur
 62
   255
 39
0.008
  6
CONTINUOUS
 10
1.64539
 20
0.42882
 30
 0
 11
1.64917
 21
0.42787
  0
LINE
  8
Gravur
 62
   255
 39
0.008
  6
CONTINUOUS
 10
1.64917
 20
0.42787
 30
 0
 11
1.65283
 21
0.42634
  0
LINE
  8
Gravur
 62
   255
 39
0.008
  6
CONTINUOUS
 10
1.65283
 20
0.42634
 30
 0
 11
1.65622
 21
0.42425
  0
LINE
  8
Gravur
 62
   255
 39
0.008
  6
CONTINUOUS
 10
1.65622
 20
0.42425
 30
 0
 11
1.65929
 21
0.42161
  0
LINE
  8
Gravur
 62
   255
 39
0.008
  6
CONTINUOUS
 10
1.65929
 20
0.42161
 30
 0
 11
1.66197
 21
0.41854
  0
LINE
  8
Gravur
 62
   255
 39
0.008
  6
CONTINUOUS
 10
1.66197
 20
0.41854
 30
 0
 11
1.66425
 21
0.41500
  0
LINE
  8
Gravur
 62
   255
 39
0.008
  6
CONTINUOUS
 10
1.66425
 20
0.41500
 30
 0
 11
1.66602
 21
0.41118
  0
LINE
  8
Gravur
 62
   255
 39
0.008
  6
CONTINUOUS
 10
1.66602
 20
0.41118
 30
 0
 11
1.66724
 21
0.40709
  0
LINE
  8
Gravur
 62
   255
 39
0.008
  6
CONTINUOUS
 10
1.66724
 20
0.40709
 30
 0
 11
1.66795
 21
0.40287
  0
LINE
  8
Gravur
 62
   255
 39
0.008
  6
CONTINUOUS
 10
1.66795
 20
0.40287
 30
 0
 11
1.66811
 21
0.39957
  0
LINE
  8
Gravur
 62
   255
 39
0.008
  6
CONTINUOUS
 10
1.69823
 20
0.42909
 30
 0
 11
1.72213
 21
0.35528
  0
LINE
  8
Gravur
 62
   255
 39
0.008
  6
CONTINUOUS
 10
1.72213
 20
0.35528
 30
 0
 11
1.72213
 21
0.31098
  0
LINE
  8
Gravur
 62
   255
 39
0.008
  6
CONTINUOUS
 10
1.72213
 20
0.31098
 30
 0
 11
1.72213
 21
0.35528
  0
LINE
  8
Gravur
 62
   255
 39
0.008
  6
CONTINUOUS
 10
1.72213
 20
0.35528
 30
 0
 11
1.74606
 21
0.42909
  0
LINE
  8
Gravur
 62
   255
 39
0.008
  6
CONTINUOUS
 10
1.77618
 20
0.31098
 30
 0
 11
1.77618
 21
0.42909
  0
LINE
  8
Gravur
 62
   255
 39
0.008
  6
CONTINUOUS
 10
1.77618
 20
0.42909
 30
 0
 11
1.82402
 21
0.31098
  0
LINE
  8
Gravur
 62
   255
 39
0.008
  6
CONTINUOUS
 10
1.82402
 20
0.31098
 30
 0
 11
1.82402
 21
0.42909
  0
LINE
  8
Gravur
 62
   255
 39
0.008
  6
CONTINUOUS
 10
1.85413
 20
0.42909
 30
 0
 11
1.90197
 21
0.42909
  0
LINE
  8
Gravur
 62
   255
 39
0.008
  6
CONTINUOUS
 10
1.90197
 20
0.42909
 30
 0
 11
1.87807
 21
0.42909
  0
LINE
  8
Gravur
 62
   255
 39
0.008
  6
CONTINUOUS
 10
1.87807
 20
0.42909
 30
 0
 11
1.87807
 21
0.31098
  0
LINE
  8
Gravur
 62
   255
 39
0.008
  6
CONTINUOUS
 10
1.93209
 20
0.42909
 30
 0
 11
1.93209
 21
0.31098
  0
LINE
  8
Gravur
 62
   255
 39
0.008
  6
CONTINUOUS
 10
1.93209
 20
0.37004
 30
 0
 11
1.97992
 21
0.37004
  0
LINE
  8
Gravur
 62
   255
 39
0.008
  6
CONTINUOUS
 10
1.97992
 20
0.31098
 30
 0
 11
1.97992
 21
0.42909
  0
LINE
  8
Gravur
 62
   255
 39
0.008
  6
CONTINUOUS
 10
2.01004
 20
0.34051
 30
 0
 11
2.01031
 21
0.33610
  0
LINE
  8
Gravur
 62
   255
 39
0.008
  6
CONTINUOUS
 10
2.01031
 20
0.33610
 30
 0
 11
2.01122
 21
0.33181
  0
LINE
  8
Gravur
 62
   255
 39
0.008
  6
CONTINUOUS
 10
2.01122
 20
0.33181
 30
 0
 11
2.01268
 21
0.32772
  0
LINE
  8
Gravur
 62
   255
 39
0.008
  6
CONTINUOUS
 10
2.01268
 20
0.32772
 30
 0
 11
2.01465
 21
0.32390
  0
LINE
  8
Gravur
 62
   255
 39
0.008
  6
CONTINUOUS
 10
2.01465
 20
0.32390
 30
 0
 11
2.01713
 21
0.32043
  0
LINE
  8
Gravur
 62
   255
 39
0.008
  6
CONTINUOUS
 10
2.01713
 20
0.32043
 30
 0
 11
2.02004
 21
0.31744
  0
LINE
  8
Gravur
 62
   255
 39
0.008
  6
CONTINUOUS
 10
2.02004
 20
0.31744
 30
 0
 11
2.02335
 21
0.31492
  0
LINE
  8
Gravur
 62
   255
 39
0.008
  6
CONTINUOUS
 10
2.02335
 20
0.31492
 30
 0
 11
2.02689
 21
0.31303
  0
LINE
  8
Gravur
 62
   255
 39
0.008
  6
CONTINUOUS
 10
2.02689
 20
0.31303
 30
 0
 11
2.03071
 21
0.31173
  0
LINE
  8
Gravur
 62
   255
 39
0.008
  6
CONTINUOUS
 10
2.03071
 20
0.31173
 30
 0
 11
2.03465
 21
0.31106
  0
LINE
  8
Gravur
 62
   255
 39
0.008
  6
CONTINUOUS
 10
2.03465
 20
0.31106
 30
 0
 11
2.03858
 21
0.31106
  0
LINE
  8
Gravur
 62
   255
 39
0.008
  6
CONTINUOUS
 10
2.03858
 20
0.31106
 30
 0
 11
2.04252
 21
0.31173
  0
LINE
  8
Gravur
 62
   255
 39
0.008
  6
CONTINUOUS
 10
2.04252
 20
0.31173
 30
 0
 11
2.04634
 21
0.31303
  0
LINE
  8
Gravur
 62
   255
 39
0.008
  6
CONTINUOUS
 10
2.04634
 20
0.31303
 30
 0
 11
2.04992
 21
0.31492
  0
LINE
  8
Gravur
 62
   255
 39
0.008
  6
CONTINUOUS
 10
2.04992
 20
0.31492
 30
 0
 11
2.05319
 21
0.31744
  0
LINE
  8
Gravur
 62
   255
 39
0.008
  6
CONTINUOUS
 10
2.05319
 20
0.31744
 30
 0
 11
2.05610
 21
0.32043
  0
LINE
  8
Gravur
 62
   255
 39
0.008
  6
CONTINUOUS
 10
2.05610
 20
0.32043
 30
 0
 11
2.05858
 21
0.32390
  0
LINE
  8
Gravur
 62
   255
 39
0.008
  6
CONTINUOUS
 10
2.05858
 20
0.32390
 30
 0
 11
2.06055
 21
0.32772
  0
LINE
  8
Gravur
 62
   255
 39
0.008
  6
CONTINUOUS
 10
2.06055
 20
0.32772
 30
 0
 11
2.06201
 21
0.33181
  0
LINE
  8
Gravur
 62
   255
 39
0.008
  6
CONTINUOUS
 10
2.06201
 20
0.33181
 30
 0
 11
2.06291
 21
0.33610
  0
LINE
  8
Gravur
 62
   255
 39
0.008
  6
CONTINUOUS
 10
2.06291
 20
0.33610
 30
 0
 11
2.06319
 21
0.34051
  0
LINE
  8
Gravur
 62
   255
 39
0.008
  6
CONTINUOUS
 10
2.06319
 20
0.34051
 30
 0
 11
2.06319
 21
0.34051
  0
LINE
  8
Gravur
 62
   255
 39
0.008
  6
CONTINUOUS
 10
2.06319
 20
0.34051
 30
 0
 11
2.06295
 21
0.34472
  0
LINE
  8
Gravur
 62
   255
 39
0.008
  6
CONTINUOUS
 10
2.06295
 20
0.34472
 30
 0
 11
2.06217
 21
0.34886
  0
LINE
  8
Gravur
 62
   255
 39
0.008
  6
CONTINUOUS
 10
2.06217
 20
0.34886
 30
 0
 11
2.06083
 21
0.35280
  0
LINE
  8
Gravur
 62
   255
 39
0.008
  6
CONTINUOUS
 10
2.06083
 20
0.35280
 30
 0
 11
2.05902
 21
0.35650
  0
LINE
  8
Gravur
 62
   255
 39
0.008
  6
CONTINUOUS
 10
2.05902
 20
0.35650
 30
 0
 11
2.05673
 21
0.35988
  0
LINE
  8
Gravur
 62
   255
 39
0.008
  6
CONTINUOUS
 10
2.05673
 20
0.35988
 30
 0
 11
2.05406
 21
0.36287
  0
LINE
  8
Gravur
 62
   255
 39
0.008
  6
CONTINUOUS
 10
2.05406
 20
0.36287
 30
 0
 11
2.05098
 21
0.36539
  0
LINE
  8
Gravur
 62
   255
 39
0.008
  6
CONTINUOUS
 10
2.05098
 20
0.36539
 30
 0
 11
2.04768
 21
0.36740
  0
LINE
  8
Gravur
 62
   255
 39
0.008
  6
CONTINUOUS
 10
2.04768
 20
0.36740
 30
 0
 11
2.04413
 21
0.36890
  0
LINE
  8
Gravur
 62
   255
 39
0.008
  6
CONTINUOUS
 10
2.04413
 20
0.36890
 30
 0
 11
2.04039
 21
0.36976
  0
LINE
  8
Gravur
 62
   255
 39
0.008
  6
CONTINUOUS
 10
2.04039
 20
0.36976
 30
 0
 11
2.03661
 21
0.37004
  0
LINE
  8
Gravur
 62
   255
 39
0.008
  6
CONTINUOUS
 10
2.03661
 20
0.37004
 30
 0
 11
2.03661
 21
0.37004
  0
LINE
  8
Gravur
 62
   255
 39
0.008
  6
CONTINUOUS
 10
2.03661
 20
0.37004
 30
 0
 11
2.03264
 21
0.37035
  0
LINE
  8
Gravur
 62
   255
 39
0.008
  6
CONTINUOUS
 10
2.03264
 20
0.37035
 30
 0
 11
2.02878
 21
0.37134
  0
LINE
  8
Gravur
 62
   255
 39
0.008
  6
CONTINUOUS
 10
2.02878
 20
0.37134
 30
 0
 11
2.02512
 21
0.37295
  0
LINE
  8
Gravur
 62
   255
 39
0.008
  6
CONTINUOUS
 10
2.02512
 20
0.37295
 30
 0
 11
2.02165
 21
0.37516
  0
LINE
  8
Gravur
 62
   255
 39
0.008
  6
CONTINUOUS
 10
2.02165
 20
0.37516
 30
 0
 11
2.01854
 21
0.37791
  0
LINE
  8
Gravur
 62
   255
 39
0.008
  6
CONTINUOUS
 10
2.01854
 20
0.37791
 30
 0
 11
2.01587
 21
0.38114
  0
LINE
  8
Gravur
 62
   255
 39
0.008
  6
CONTINUOUS
 10
2.01587
 20
0.38114
 30
 0
 11
2.01358
 21
0.38480
  0
LINE
  8
Gravur
 62
   255
 39
0.008
  6
CONTINUOUS
 10
2.01358
 20
0.38480
 30
 0
 11
2.01189
 21
0.38878
  0
LINE
  8
Gravur
 62
   255
 39
0.008
  6
CONTINUOUS
 10
2.01189
 20
0.38878
 30
 0
 11
2.01071
 21
0.39299
  0
LINE
  8
Gravur
 62
   255
 39
0.008
  6
CONTINUOUS
 10
2.01071
 20
0.39299
 30
 0
 11
2.01012
 21
0.39736
  0
LINE
  8
Gravur
 62
   255
 39
0.008
  6
CONTINUOUS
 10
2.01012
 20
0.39736
 30
 0
 11
2.01012
 21
0.40177
  0
LINE
  8
Gravur
 62
   255
 39
0.008
  6
CONTINUOUS
 10
2.01012
 20
0.40177
 30
 0
 11
2.01071
 21
0.40614
  0
LINE
  8
Gravur
 62
   255
 39
0.008
  6
CONTINUOUS
 10
2.01071
 20
0.40614
 30
 0
 11
2.01189
 21
0.41035
  0
LINE
  8
Gravur
 62
   255
 39
0.008
  6
CONTINUOUS
 10
2.01189
 20
0.41035
 30
 0
 11
2.01358
 21
0.41433
  0
LINE
  8
Gravur
 62
   255
 39
0.008
  6
CONTINUOUS
 10
2.01358
 20
0.41433
 30
 0
 11
2.01587
 21
0.41799
  0
LINE
  8
Gravur
 62
   255
 39
0.008
  6
CONTINUOUS
 10
2.01587
 20
0.41799
 30
 0
 11
2.01854
 21
0.42122
  0
LINE
  8
Gravur
 62
   255
 39
0.008
  6
CONTINUOUS
 10
2.01854
 20
0.42122
 30
 0
 11
2.02165
 21
0.42398
  0
LINE
  8
Gravur
 62
   255
 39
0.008
  6
CONTINUOUS
 10
2.02165
 20
0.42398
 30
 0
 11
2.02512
 21
0.42618
  0
LINE
  8
Gravur
 62
   255
 39
0.008
  6
CONTINUOUS
 10
2.02512
 20
0.42618
 30
 0
 11
2.02878
 21
0.42780
  0
LINE
  8
Gravur
 62
   255
 39
0.008
  6
CONTINUOUS
 10
2.02878
 20
0.42780
 30
 0
 11
2.03264
 21
0.42878
  0
LINE
  8
Gravur
 62
   255
 39
0.008
  6
CONTINUOUS
 10
2.03264
 20
0.42878
 30
 0
 11
2.03661
 21
0.42909
  0
LINE
  8
Gravur
 62
   255
 39
0.008
  6
CONTINUOUS
 10
2.03661
 20
0.42909
 30
 0
 11
2.03661
 21
0.42909
  0
LINE
  8
Gravur
 62
   255
 39
0.008
  6
CONTINUOUS
 10
2.03661
 20
0.42909
 30
 0
 11
2.04047
 21
0.42882
  0
LINE
  8
Gravur
 62
   255
 39
0.008
  6
CONTINUOUS
 10
2.04047
 20
0.42882
 30
 0
 11
2.04425
 21
0.42787
  0
LINE
  8
Gravur
 62
   255
 39
0.008
  6
CONTINUOUS
 10
2.04425
 20
0.42787
 30
 0
 11
2.04791
 21
0.42634
  0
LINE
  8
Gravur
 62
   255
 39
0.008
  6
CONTINUOUS
 10
2.04791
 20
0.42634
 30
 0
 11
2.05130
 21
0.42425
  0
LINE
  8
Gravur
 62
   255
 39
0.008
  6
CONTINUOUS
 10
2.05130
 20
0.42425
 30
 0
 11
2.05437
 21
0.42161
  0
LINE
  8
Gravur
 62
   255
 39
0.008
  6
CONTINUOUS
 10
2.05437
 20
0.42161
 30
 0
 11
2.05705
 21
0.41854
  0
LINE
  8
Gravur
 62
   255
 39
0.008
  6
CONTINUOUS
 10
2.05705
 20
0.41854
 30
 0
 11
2.05933
 21
0.41500
  0
LINE
  8
Gravur
 62
   255
 39
0.008
  6
CONTINUOUS
 10
2.05933
 20
0.41500
 30
 0
 11
2.06110
 21
0.41118
  0
LINE
  8
Gravur
 62
   255
 39
0.008
  6
CONTINUOUS
 10
2.06110
 20
0.41118
 30
 0
 11
2.06232
 21
0.40709
  0
LINE
  8
Gravur
 62
   255
 39
0.008
  6
CONTINUOUS
 10
2.06232
 20
0.40709
 30
 0
 11
2.06303
 21
0.40287
  0
LINE
  8
Gravur
 62
   255
 39
0.008
  6
CONTINUOUS
 10
2.06303
 20
0.40287
 30
 0
 11
2.06319
 21
0.39957
  0
LINE
  8
Gravur
 62
   255
 39
0.016
  6
CONTINUOUS
 10
0.78169
 20
5.35909
 30
 0
 11
0.78169
 21
5.24886
  0
LINE
  8
Gravur
 62
   255
 39
0.016
  6
CONTINUOUS
 10
0.80976
 20
5.24886
 30
 0
 11
0.80976
 21
5.35909
  0
LINE
  8
Gravur
 62
   255
 39
0.016
  6
CONTINUOUS
 10
0.80976
 20
5.35909
 30
 0
 11
0.85441
 21
5.24886
  0
LINE
  8
Gravur
 62
   255
 39
0.016
  6
CONTINUOUS
 10
0.85441
 20
5.24886
 30
 0
 11
0.85441
 21
5.35909
  0
LINE
  8
Gravur
 62
   255
 39
0.016
  6
CONTINUOUS
 10
0.96106
 20
5.33154
 30
 0
 11
0.98339
 21
5.35909
  0
LINE
  8
Gravur
 62
   255
 39
0.016
  6
CONTINUOUS
 10
0.98339
 20
5.35909
 30
 0
 11
0.98339
 21
5.24886
  0
ARC
  8
Gravur
 62
   255
 39
0.008
  6
CONTINUOUS
 10
0.15248
 20
4.60480
 30
 0
 40
0.01949
 50
91.50439
 51
-174.78461
  0
ARC
  8
Gravur
 62
   255
 39
0.008
  6
CONTINUOUS
 10
0.15295
 20
4.60374
 30
 0
 40
0.02059
 50
330.44533
 51
92.74196
  0
LINE
  8
Gravur
 62
   255
 39
0.008
  6
CONTINUOUS
 10
0.17087
 20
4.59358
 30
 0
 11
0.13307
 21
4.52980
  0
LINE
  8
Gravur
 62
   255
 39
0.008
  6
CONTINUOUS
 10
0.13307
 20
4.52980
 30
 0
 11
0.17323
 21
4.52980
  0
ARC
  8
Gravur
 62
   255
 39
0.008
  6
CONTINUOUS
 10
0.24882
 20
4.96902
 30
 0
 40
0.01937
 50
434.80614
 51
175.92268
  0
ARC
  8
Gravur
 62
   255
 39
0.008
  6
CONTINUOUS
 10
0.24843
 20
4.96752
 30
 0
 40
0.02091
 50
263.39742
 51
74.83943
  0
ARC
  8
Gravur
 62
   255
 39
0.008
  6
CONTINUOUS
 10
0.24921
 20
4.92118
 30
 0
 40
0.02579
 50
285.86128
 51
97.10332
  0
ARC
  8
Gravur
 62
   255
 39
0.008
  6
CONTINUOUS
 10
0.24976
 20
4.91819
 30
 0
 40
0.02276
 50
185.36509
 51
-73.41468
  0
LINE
  8
Gravur
 62
   255
 39
0.008
  6
CONTINUOUS
 10
0.52890
 20
5.25650
 30
 0
 11
0.49819
 21
5.18563
  0
LINE
  8
Gravur
 62
   255
 39
0.008
  6
CONTINUOUS
 10
0.49819
 20
5.18563
 30
 0
 11
0.53835
 21
5.18563
  0
LINE
  8
Gravur
 62
   255
 39
0.008
  6
CONTINUOUS
 10
0.52890
 20
5.20925
 30
 0
 11
0.52890
 21
5.16201
  0
LINE
  8
Gravur
 62
   255
 39
0.008
  6
CONTINUOUS
 10
0.24043
 20
4.23567
 30
 0
 11
0.26169
 21
4.25929
  0
LINE
  8
Gravur
 62
   255
 39
0.008
  6
CONTINUOUS
 10
0.26169
 20
4.25929
 30
 0
 11
0.26169
 21
4.16480
  0
ARC
  8
Gravur
 62
   255
 39
0.008
  6
CONTINUOUS
 10
0.51827
 20
3.91886
 30
 0
 40
0.02126
 50
180.00000
 51
360.00000
  0
LINE
  8
Gravur
 62
   255
 39
0.008
  6
CONTINUOUS
 10
0.53953
 20
3.91886
 30
 0
 11
0.53953
 21
3.97083
  0
ARC
  8
Gravur
 62
   255
 39
0.008
  6
CONTINUOUS
 10
0.51827
 20
3.97083
 30
 0
 40
0.02126
 50
0.00000
 51
180.00000
  0
LINE
  8
Gravur
 62
   255
 39
0.008
  6
CONTINUOUS
 10
0.49701
 20
3.97083
 30
 0
 11
0.49701
 21
3.91886
  0
LINE
  8
Gravur
 62
   255
 39
0.008
  6
CONTINUOUS
 10
1.20299
 20
3.96846
 30
 0
 11
1.22425
 21
3.99209
  0
LINE
  8
Gravur
 62
   255
 39
0.008
  6
CONTINUOUS
 10
1.22425
 20
3.99209
 30
 0
 11
1.22425
 21
3.89760
  0
ARC
  8
Gravur
 62
   255
 39
0.008
  6
CONTINUOUS
 10
1.27228
 20
3.91886
 30
 0
 40
0.02126
 50
180.00000
 51
360.00000
  0
LINE
  8
Gravur
 62
   255
 39
0.008
  6
CONTINUOUS
 10
1.29354
 20
3.91886
 30
 0
 11
1.29354
 21
3.97083
  0
ARC
  8
Gravur
 62
   255
 39
0.008
  6
CONTINUOUS
 10
1.27228
 20
3.97083
 30
 0
 40
0.02126
 50
0.00000
 51
180.00000
  0
LINE
  8
Gravur
 62
   255
 39
0.008
  6
CONTINUOUS
 10
1.25102
 20
3.97083
 30
 0
 11
1.25102
 21
3.91886
  0
ARC
  8
Gravur
 62
   255
 39
0.008
  6
CONTINUOUS
 10
1.51744
 20
4.18559
 30
 0
 40
0.02087
 50
178.70296
 51
264.59040
  0
ARC
  8
Gravur
 62
   255
 39
0.008
  6
CONTINUOUS
 10
1.51476
 20
4.18441
 30
 0
 40
0.01961
 50
-87.92997
 51
-2.07003
  0
LINE
  8
Gravur
 62
   255
 39
0.008
  6
CONTINUOUS
 10
1.53437
 20
4.18370
 30
 0
 11
1.53437
 21
4.24039
  0
ARC
  8
Gravur
 62
   255
 39
0.008
  6
CONTINUOUS
 10
1.51547
 20
4.24039
 30
 0
 40
0.01890
 50
0.00000
 51
180.00000
  0
LINE
  8
Gravur
 62
   255
 39
0.008
  6
CONTINUOUS
 10
1.49657
 20
4.24039
 30
 0
 11
1.49657
 21
4.22622
  0
ARC
  8
Gravur
 62
   255
 39
0.008
  6
CONTINUOUS
 10
1.51606
 20
4.22846
 30
 0
 40
0.01961
 50
-173.43124
 51
-20.83908
  0
ARC
  8
Gravur
 62
   255
 39
0.008
  6
CONTINUOUS
 10
1.61339
 20
4.55016
 30
 0
 40
0.02035
 50
-90.33247
 51
0.33247
  0
LINE
  8
Gravur
 62
   255
 39
0.008
  6
CONTINUOUS
 10
1.63374
 20
4.55028
 30
 0
 11
1.63374
 21
4.55736
  0
ARC
  8
Gravur
 62
   255
 39
0.008
  6
CONTINUOUS
 10
1.61378
 20
4.55709
 30
 0
 40
0.01996
 50
0.79102
 51
91.46880
  0
ARC
  8
Gravur
 62
   255
 39
0.008
  6
CONTINUOUS
 10
1.61339
 20
4.59583
 30
 0
 40
0.01878
 50
-90.36035
 51
0.36035
  0
LINE
  8
Gravur
 62
   255
 39
0.008
  6
CONTINUOUS
 10
1.63217
 20
4.59594
 30
 0
 11
1.63217
 21
4.60539
  0
ARC
  8
Gravur
 62
   255
 39
0.008
  6
CONTINUOUS
 10
1.61327
 20
4.60539
 30
 0
 40
0.01890
 50
0.00000
 51
180.00000
  0
LINE
  8
Gravur
 62
   255
 39
0.008
  6
CONTINUOUS
 10
1.59437
 20
4.60539
 30
 0
 11
1.59437
 21
4.59594
  0
ARC
  8
Gravur
 62
   255
 39
0.008
  6
CONTINUOUS
 10
1.61315
 20
4.59583
 30
 0
 40
0.01878
 50
179.63965
 51
270.36035
  0
ARC
  8
Gravur
 62
   255
 39
0.008
  6
CONTINUOUS
 10
1.61276
 20
4.55709
 30
 0
 40
0.01996
 50
88.53120
 51
179.20898
  0
LINE
  8
Gravur
 62
   255
 39
0.008
  6
CONTINUOUS
 10
1.59280
 20
4.55736
 30
 0
 11
1.59280
 21
4.55028
  0
ARC
  8
Gravur
 62
   255
 39
0.008
  6
CONTINUOUS
 10
1.61315
 20
4.55016
 30
 0
 40
0.02035
 50
179.66753
 51
270.33247
  0
LINE
  8
Gravur
 62
   255
 39
0.008
  6
CONTINUOUS
 10
1.49539
 20
4.97276
 30
 0
 11
1.49539
 21
4.98929
  0
LINE
  8
Gravur
 62
   255
 39
0.008
  6
CONTINUOUS
 10
1.49539
 20
4.98929
 30
 0
 11
1.53555
 21
4.98929
  0
LINE
  8
Gravur
 62
   255
 39
0.008
  6
CONTINUOUS
 10
1.53555
 20
4.98929
 30
 0
 11
1.50484
 21
4.89480
  0
ARC
  8
Gravur
 62
   255
 39
0.008
  6
CONTINUOUS
 10
1.24752
 20
5.23571
 30
 0
 40
0.02087
 50
-1.29704
 51
84.59040
  0
ARC
  8
Gravur
 62
   255
 39
0.008
  6
CONTINUOUS
 10
1.24772
 20
5.23709
 30
 0
 40
0.01949
 50
84.78461
 51
178.49561
  0
LINE
  8
Gravur
 62
   255
 39
0.008
  6
CONTINUOUS
 10
1.22823
 20
5.23760
 30
 0
 11
1.22823
 21
5.18091
  0
ARC
  8
Gravur
 62
   255
 39
0.008
  6
CONTINUOUS
 10
1.24933
 20
5.18311
 30
 0
 40
0.02122
 50
-174.03551
 51
-95.96449
  0
ARC
  8
Gravur
 62
   255
 39
0.008
  6
CONTINUOUS
 10
1.24760
 20
5.18287
 30
 0
 40
0.02087
 50
-91.29704
 51
-5.40960
  0
LINE
  8
Gravur
 62
   255
 39
0.008
  6
CONTINUOUS
 10
1.26839
 20
5.18091
 30
 0
 11
1.26839
 21
5.19980
  0
ARC
  8
Gravur
 62
   255
 39
0.008
  6
CONTINUOUS
 10
1.24724
 20
5.19740
 30
 0
 40
0.02126
 50
6.48068
 51
153.48242
  0
LINE
  8
Gravur
 62
   255
 39
0.016
  6
CONTINUOUS
 10
0.83331
 20
4.57677
 30
 0
 11
0.93173
 21
4.57677
  0
LINE
  8
Gravur
 62
   255
 39
0.016
  6
CONTINUOUS
 10
0.88252
 20
4.62598
 30
 0
 11
0.88252
 21
4.52756
  0
LINE
  8
Gravur
 62
   255
 39
0.016
  6
CONTINUOUS
 10
0.56756
 20
4.03126
 30
 0
 11
0.73484
 21
4.32102
  0
LINE
  8
Gravur
 62
   255
 39
0.016
  6
CONTINUOUS
 10
0.73484
 20
4.32102
 30
 0
 11
0.73488
 21
4.32102
  0
LINE
  8
Gravur
 62
   255
 39
0.016
  6
CONTINUOUS
 10
1.19748
 20
4.03126
 30
 0
 11
1.03016
 21
4.32102
  0
LINE
  8
Gravur
 62
   255
 39
0.016
  6
CONTINUOUS
 10
1.03016
 20
4.32102
 30
 0
 11
1.03016
 21
4.32102
  0
LINE
  8
Gravur
 62
   255
 39
0.016
  6
CONTINUOUS
 10
1.13823
 20
4.42909
 30
 0
 11
1.13823
 21
4.42909
  0
LINE
  8
Gravur
 62
   255
 39
0.016
  6
CONTINUOUS
 10
1.13823
 20
4.42909
 30
 0
 11
1.42803
 21
4.26177
  0
LINE
  8
Gravur
 62
   255
 39
0.016
  6
CONTINUOUS
 10
1.51244
 20
4.57677
 30
 0
 11
1.17780
 21
4.57677
  0
LINE
  8
Gravur
 62
   255
 39
0.016
  6
CONTINUOUS
 10
1.17780
 20
4.57677
 30
 0
 11
1.17780
 21
4.57677
  0
LINE
  8
Gravur
 62
   255
 39
0.016
  6
CONTINUOUS
 10
1.13823
 20
4.72441
 30
 0
 11
1.13823
 21
4.72441
  0
LINE
  8
Gravur
 62
   255
 39
0.016
  6
CONTINUOUS
 10
1.13823
 20
4.72441
 30
 0
 11
1.42803
 21
4.89173
  0
LINE
  8
Gravur
 62
   255
 39
0.016
  6
CONTINUOUS
 10
1.19744
 20
5.12228
 30
 0
 11
1.03016
 21
4.83248
  0
LINE
  8
Gravur
 62
   255
 39
0.016
  6
CONTINUOUS
 10
1.03016
 20
4.83248
 30
 0
 11
1.03012
 21
4.83248
  0
LINE
  8
Gravur
 62
   255
 39
0.016
  6
CONTINUOUS
 10
0.88252
 20
4.87205
 30
 0
 11
0.88252
 21
4.87205
  0
LINE
  8
Gravur
 62
   255
 39
0.016
  6
CONTINUOUS
 10
0.88252
 20
4.87205
 30
 0
 11
0.88252
 21
5.20669
  0
LINE
  8
Gravur
 62
   255
 39
0.016
  6
CONTINUOUS
 10
0.56756
 20
5.12228
 30
 0
 11
0.73488
 21
4.83248
  0
LINE
  8
Gravur
 62
   255
 39
0.016
  6
CONTINUOUS
 10
0.73488
 20
4.83248
 30
 0
 11
0.73488
 21
4.83248
  0
LINE
  8
Gravur
 62
   255
 39
0.016
  6
CONTINUOUS
 10
0.62677
 20
4.72441
 30
 0
 11
0.62677
 21
4.72441
  0
LINE
  8
Gravur
 62
   255
 39
0.016
  6
CONTINUOUS
 10
0.62677
 20
4.72441
 30
 0
 11
0.33701
 21
4.89169
  0
LINE
  8
Gravur
 62
   255
 39
0.016
  6
CONTINUOUS
 10
0.25260
 20
4.57677
 30
 0
 11
0.58724
 21
4.57677
  0
LINE
  8
Gravur
 62
   255
 39
0.016
  6
CONTINUOUS
 10
0.58724
 20
4.57677
 30
 0
 11
0.58724
 21
4.57677
  0
LINE
  8
Gravur
 62
   255
 39
0.016
  6
CONTINUOUS
 10
0.62677
 20
4.42913
 30
 0
 11
0.62677
 21
4.42913
  0
LINE
  8
Gravur
 62
   255
 39
0.016
  6
CONTINUOUS
 10
0.62677
 20
4.42913
 30
 0
 11
0.33701
 21
4.26181
  0
LINE
  8
Gravur
 62
   255
 39
0.008
  6
CONTINUOUS
 10
0.83335
 20
4.58004
 30
 0
 11
0.93177
 21
4.58004
  0
LINE
  8
Gravur
 62
   255
 39
0.008
  6
CONTINUOUS
 10
0.88256
 20
4.62925
 30
 0
 11
0.88256
 21
4.53083
  0
LINE
  8
Gravur
 62
   255
 39
0.008
  6
CONTINUOUS
 10
1.31406
 20
4.14850
 30
 0
 11
1.09134
 21
4.37122
  0
LINE
  8
Gravur
 62
   255
 39
0.008
  6
CONTINUOUS
 10
1.09134
 20
4.37122
 30
 0
 11
1.09134
 21
4.37122
  0
LINE
  8
Gravur
 62
   255
 39
0.008
  6
CONTINUOUS
 10
1.16776
 20
4.50362
 30
 0
 11
1.16776
 21
4.50362
  0
LINE
  8
Gravur
 62
   255
 39
0.008
  6
CONTINUOUS
 10
1.16776
 20
4.50362
 30
 0
 11
1.47201
 21
4.42209
  0
LINE
  8
Gravur
 62
   255
 39
0.008
  6
CONTINUOUS
 10
1.47201
 20
4.73795
 30
 0
 11
1.16776
 21
4.65642
  0
LINE
  8
Gravur
 62
   255
 39
0.008
  6
CONTINUOUS
 10
1.16776
 20
4.65642
 30
 0
 11
1.16776
 21
4.65642
  0
LINE
  8
Gravur
 62
   255
 39
0.008
  6
CONTINUOUS
 10
1.09134
 20
4.78882
 30
 0
 11
1.09134
 21
4.78882
  0
LINE
  8
Gravur
 62
   255
 39
0.008
  6
CONTINUOUS
 10
1.09134
 20
4.78882
 30
 0
 11
1.31406
 21
5.01154
  0
LINE
  8
Gravur
 62
   255
 39
0.008
  6
CONTINUOUS
 10
1.04047
 20
5.16949
 30
 0
 11
0.95894
 21
4.86524
  0
LINE
  8
Gravur
 62
   255
 39
0.008
  6
CONTINUOUS
 10
0.95894
 20
4.86524
 30
 0
 11
0.95894
 21
4.86524
  0
LINE
  8
Gravur
 62
   255
 39
0.008
  6
CONTINUOUS
 10
0.80614
 20
4.86524
 30
 0
 11
0.80614
 21
4.86524
  0
LINE
  8
Gravur
 62
   255
 39
0.008
  6
CONTINUOUS
 10
0.80614
 20
4.86524
 30
 0
 11
0.72461
 21
5.16949
  0
LINE
  8
Gravur
 62
   255
 39
0.008
  6
CONTINUOUS
 10
0.45102
 20
5.01154
 30
 0
 11
0.67374
 21
4.78882
  0
LINE
  8
Gravur
 62
   255
 39
0.008
  6
CONTINUOUS
 10
0.67374
 20
4.78882
 30
 0
 11
0.67374
 21
4.78882
  0
LINE
  8
Gravur
 62
   255
 39
0.008
  6
CONTINUOUS
 10
0.59732
 20
4.65642
 30
 0
 11
0.59732
 21
4.65642
  0
LINE
  8
Gravur
 62
   255
 39
0.008
  6
CONTINUOUS
 10
0.59732
 20
4.65642
 30
 0
 11
0.29307
 21
4.73795
  0
LINE
  8
Gravur
 62
   255
 39
0.008
  6
CONTINUOUS
 10
0.29307
 20
4.42209
 30
 0
 11
0.59732
 21
4.50362
  0
LINE
  8
Gravur
 62
   255
 39
0.008
  6
CONTINUOUS
 10
0.59732
 20
4.50362
 30
 0
 11
0.59732
 21
4.50362
  0
LINE
  8
Gravur
 62
   255
 39
0.008
  6
CONTINUOUS
 10
0.67374
 20
4.37122
 30
 0
 11
0.67374
 21
4.37122
  0
LINE
  8
Gravur
 62
   255
 39
0.008
  6
CONTINUOUS
 10
0.67374
 20
4.37122
 30
 0
 11
0.45102
 21
4.14850
  0
LINE
  8
Gravur
 62
   255
 39
0.016
  6
CONTINUOUS
 10
0.79161
 20
8.60909
 30
 0
 11
0.75193
 21
8.60909
  0
LINE
  8
Gravur
 62
   255
 39
0.016
  6
CONTINUOUS
 10
0.75193
 20
8.60909
 30
 0
 11
0.75193
 21
8.49886
  0
LINE
  8
Gravur
 62
   255
 39
0.016
  6
CONTINUOUS
 10
0.75193
 20
8.49886
 30
 0
 11
0.75193
 21
8.55398
  0
LINE
  8
Gravur
 62
   255
 39
0.016
  6
CONTINUOUS
 10
0.75193
 20
8.55398
 30
 0
 11
0.77673
 21
8.55398
  0
LINE
  8
Gravur
 62
   255
 39
0.016
  6
CONTINUOUS
 10
0.81890
 20
8.49886
 30
 0
 11
0.81890
 21
8.60909
  0
LINE
  8
Gravur
 62
   255
 39
0.016
  6
CONTINUOUS
 10
0.81890
 20
8.60909
 30
 0
 11
0.84122
 21
8.60909
  0
LINE
  8
Gravur
 62
   255
 39
0.016
  6
CONTINUOUS
 10
0.84122
 20
8.60909
 30
 0
 11
0.84488
 21
8.60878
  0
LINE
  8
Gravur
 62
   255
 39
0.016
  6
CONTINUOUS
 10
0.84488
 20
8.60878
 30
 0
 11
0.84850
 21
8.60787
  0
LINE
  8
Gravur
 62
   255
 39
0.016
  6
CONTINUOUS
 10
0.84850
 20
8.60787
 30
 0
 11
0.85197
 21
8.60638
  0
LINE
  8
Gravur
 62
   255
 39
0.016
  6
CONTINUOUS
 10
0.85197
 20
8.60638
 30
 0
 11
0.85516
 21
8.60429
  0
LINE
  8
Gravur
 62
   255
 39
0.016
  6
CONTINUOUS
 10
0.85516
 20
8.60429
 30
 0
 11
0.85807
 21
8.60173
  0
LINE
  8
Gravur
 62
   255
 39
0.016
  6
CONTINUOUS
 10
0.85807
 20
8.60173
 30
 0
 11
0.86059
 21
8.59870
  0
LINE
  8
Gravur
 62
   255
 39
0.016
  6
CONTINUOUS
 10
0.86059
 20
8.59870
 30
 0
 11
0.86268
 21
8.59531
  0
LINE
  8
Gravur
 62
   255
 39
0.016
  6
CONTINUOUS
 10
0.86268
 20
8.59531
 30
 0
 11
0.86429
 21
8.59161
  0
LINE
  8
Gravur
 62
   255
 39
0.016
  6
CONTINUOUS
 10
0.86429
 20
8.59161
 30
 0
 11
0.86535
 21
8.58768
  0
LINE
  8
Gravur
 62
   255
 39
0.016
  6
CONTINUOUS
 10
0.86535
 20
8.58768
 30
 0
 11
0.86594
 21
8.58358
  0
LINE
  8
Gravur
 62
   255
 39
0.016
  6
CONTINUOUS
 10
0.86594
 20
8.58358
 30
 0
 11
0.86594
 21
8.57949
  0
LINE
  8
Gravur
 62
   255
 39
0.016
  6
CONTINUOUS
 10
0.86594
 20
8.57949
 30
 0
 11
0.86535
 21
8.57539
  0
LINE
  8
Gravur
 62
   255
 39
0.016
  6
CONTINUOUS
 10
0.86535
 20
8.57539
 30
 0
 11
0.86429
 21
8.57146
  0
LINE
  8
Gravur
 62
   255
 39
0.016
  6
CONTINUOUS
 10
0.86429
 20
8.57146
 30
 0
 11
0.86268
 21
8.56776
  0
LINE
  8
Gravur
 62
   255
 39
0.016
  6
CONTINUOUS
 10
0.86268
 20
8.56776
 30
 0
 11
0.86059
 21
8.56437
  0
LINE
  8
Gravur
 62
   255
 39
0.016
  6
CONTINUOUS
 10
0.86059
 20
8.56437
 30
 0
 11
0.85807
 21
8.56134
  0
LINE
  8
Gravur
 62
   255
 39
0.016
  6
CONTINUOUS
 10
0.85807
 20
8.56134
 30
 0
 11
0.85516
 21
8.55878
  0
LINE
  8
Gravur
 62
   255
 39
0.016
  6
CONTINUOUS
 10
0.85516
 20
8.55878
 30
 0
 11
0.85197
 21
8.55669
  0
LINE
  8
Gravur
 62
   255
 39
0.016
  6
CONTINUOUS
 10
0.85197
 20
8.55669
 30
 0
 11
0.84850
 21
8.55520
  0
LINE
  8
Gravur
 62
   255
 39
0.016
  6
CONTINUOUS
 10
0.84850
 20
8.55520
 30
 0
 11
0.84488
 21
8.55429
  0
LINE
  8
Gravur
 62
   255
 39
0.016
  6
CONTINUOUS
 10
0.84488
 20
8.55429
 30
 0
 11
0.84122
 21
8.55398
  0
LINE
  8
Gravur
 62
   255
 39
0.016
  6
CONTINUOUS
 10
0.84122
 20
8.55398
 30
 0
 11
0.84122
 21
8.55398
  0
LINE
  8
Gravur
 62
   255
 39
0.016
  6
CONTINUOUS
 10
0.84122
 20
8.55398
 30
 0
 11
0.81890
 21
8.55398
  0
LINE
  8
Gravur
 62
   255
 39
0.016
  6
CONTINUOUS
 10
0.81890
 20
8.55398
 30
 0
 11
0.84122
 21
8.55398
  0
LINE
  8
Gravur
 62
   255
 39
0.016
  6
CONTINUOUS
 10
0.84122
 20
8.55398
 30
 0
 11
0.86602
 21
8.49886
  0
LINE
  8
Gravur
 62
   255
 39
0.016
  6
CONTINUOUS
 10
0.93874
 20
8.60909
 30
 0
 11
0.89409
 21
8.60909
  0
LINE
  8
Gravur
 62
   255
 39
0.016
  6
CONTINUOUS
 10
0.89409
 20
8.60909
 30
 0
 11
0.89409
 21
8.49886
  0
LINE
  8
Gravur
 62
   255
 39
0.016
  6
CONTINUOUS
 10
0.89409
 20
8.49886
 30
 0
 11
0.93874
 21
8.49886
  0
LINE
  8
Gravur
 62
   255
 39
0.016
  6
CONTINUOUS
 10
0.89409
 20
8.55398
 30
 0
 11
0.93130
 21
8.55398
  0
LINE
  8
Gravur
 62
   255
 39
0.016
  6
CONTINUOUS
 10
0.96602
 20
8.52366
 30
 0
 11
0.96630
 21
8.51996
  0
LINE
  8
Gravur
 62
   255
 39
0.016
  6
CONTINUOUS
 10
0.96630
 20
8.51996
 30
 0
 11
0.96705
 21
8.51634
  0
LINE
  8
Gravur
 62
   255
 39
0.016
  6
CONTINUOUS
 10
0.96705
 20
8.51634
 30
 0
 11
0.96823
 21
8.51291
  0
LINE
  8
Gravur
 62
   255
 39
0.016
  6
CONTINUOUS
 10
0.96823
 20
8.51291
 30
 0
 11
0.96988
 21
8.50969
  0
LINE
  8
Gravur
 62
   255
 39
0.016
  6
CONTINUOUS
 10
0.96988
 20
8.50969
 30
 0
 11
0.97201
 21
8.50677
  0
LINE
  8
Gravur
 62
   255
 39
0.016
  6
CONTINUOUS
 10
0.97201
 20
8.50677
 30
 0
 11
0.97445
 21
8.50425
  0
LINE
  8
Gravur
 62
   255
 39
0.016
  6
CONTINUOUS
 10
0.97445
 20
8.50425
 30
 0
 11
0.97720
 21
8.50217
  0
LINE
  8
Gravur
 62
   255
 39
0.016
  6
CONTINUOUS
 10
0.97720
 20
8.50217
 30
 0
 11
0.98020
 21
8.50059
  0
LINE
  8
Gravur
 62
   255
 39
0.016
  6
CONTINUOUS
 10
0.98020
 20
8.50059
 30
 0
 11
0.98339
 21
8.49949
  0
LINE
  8
Gravur
 62
   255
 39
0.016
  6
CONTINUOUS
 10
0.98339
 20
8.49949
 30
 0
 11
0.98669
 21
8.49894
  0
LINE
  8
Gravur
 62
   255
 39
0.016
  6
CONTINUOUS
 10
0.98669
 20
8.49894
 30
 0
 11
0.99004
 21
8.49894
  0
LINE
  8
Gravur
 62
   255
 39
0.016
  6
CONTINUOUS
 10
0.99004
 20
8.49894
 30
 0
 11
0.99331
 21
8.49949
  0
LINE
  8
Gravur
 62
   255
 39
0.016
  6
CONTINUOUS
 10
0.99331
 20
8.49949
 30
 0
 11
0.99650
 21
8.50059
  0
LINE
  8
Gravur
 62
   255
 39
0.016
  6
CONTINUOUS
 10
0.99650
 20
8.50059
 30
 0
 11
0.99953
 21
8.50217
  0
LINE
  8
Gravur
 62
   255
 39
0.016
  6
CONTINUOUS
 10
0.99953
 20
8.50217
 30
 0
 11
1.00228
 21
8.50425
  0
LINE
  8
Gravur
 62
   255
 39
0.016
  6
CONTINUOUS
 10
1.00228
 20
8.50425
 30
 0
 11
1.00472
 21
8.50677
  0
LINE
  8
Gravur
 62
   255
 39
0.016
  6
CONTINUOUS
 10
1.00472
 20
8.50677
 30
 0
 11
1.00681
 21
8.50969
  0
LINE
  8
Gravur
 62
   255
 39
0.016
  6
CONTINUOUS
 10
1.00681
 20
8.50969
 30
 0
 11
1.00850
 21
8.51291
  0
LINE
  8
Gravur
 62
   255
 39
0.016
  6
CONTINUOUS
 10
1.00850
 20
8.51291
 30
 0
 11
1.00969
 21
8.51634
  0
LINE
  8
Gravur
 62
   255
 39
0.016
  6
CONTINUOUS
 10
1.00969
 20
8.51634
 30
 0
 11
1.01043
 21
8.51996
  0
LINE
  8
Gravur
 62
   255
 39
0.016
  6
CONTINUOUS
 10
1.01043
 20
8.51996
 30
 0
 11
1.01067
 21
8.52366
  0
LINE
  8
Gravur
 62
   255
 39
0.016
  6
CONTINUOUS
 10
1.01067
 20
8.52366
 30
 0
 11
1.01067
 21
8.52366
  0
LINE
  8
Gravur
 62
   255
 39
0.016
  6
CONTINUOUS
 10
1.01067
 20
8.52366
 30
 0
 11
1.01067
 21
8.58429
  0
LINE
  8
Gravur
 62
   255
 39
0.016
  6
CONTINUOUS
 10
1.01067
 20
8.58429
 30
 0
 11
1.01043
 21
8.58799
  0
LINE
  8
Gravur
 62
   255
 39
0.016
  6
CONTINUOUS
 10
1.01043
 20
8.58799
 30
 0
 11
1.00969
 21
8.59161
  0
LINE
  8
Gravur
 62
   255
 39
0.016
  6
CONTINUOUS
 10
1.00969
 20
8.59161
 30
 0
 11
1.00850
 21
8.59504
  0
LINE
  8
Gravur
 62
   255
 39
0.016
  6
CONTINUOUS
 10
1.00850
 20
8.59504
 30
 0
 11
1.00681
 21
8.59827
  0
LINE
  8
Gravur
 62
   255
 39
0.016
  6
CONTINUOUS
 10
1.00681
 20
8.59827
 30
 0
 11
1.00472
 21
8.60118
  0
LINE
  8
Gravur
 62
   255
 39
0.016
  6
CONTINUOUS
 10
1.00472
 20
8.60118
 30
 0
 11
1.00228
 21
8.60370
  0
LINE
  8
Gravur
 62
   255
 39
0.016
  6
CONTINUOUS
 10
1.00228
 20
8.60370
 30
 0
 11
0.99953
 21
8.60579
  0
LINE
  8
Gravur
 62
   255
 39
0.016
  6
CONTINUOUS
 10
0.99953
 20
8.60579
 30
 0
 11
0.99650
 21
8.60736
  0
LINE
  8
Gravur
 62
   255
 39
0.016
  6
CONTINUOUS
 10
0.99650
 20
8.60736
 30
 0
 11
0.99331
 21
8.60846
  0
LINE
  8
Gravur
 62
   255
 39
0.016
  6
CONTINUOUS
 10
0.99331
 20
8.60846
 30
 0
 11
0.99004
 21
8.60902
  0
LINE
  8
Gravur
 62
   255
 39
0.016
  6
CONTINUOUS
 10
0.99004
 20
8.60902
 30
 0
 11
0.98669
 21
8.60902
  0
LINE
  8
Gravur
 62
   255
 39
0.016
  6
CONTINUOUS
 10
0.98669
 20
8.60902
 30
 0
 11
0.98339
 21
8.60846
  0
LINE
  8
Gravur
 62
   255
 39
0.016
  6
CONTINUOUS
 10
0.98339
 20
8.60846
 30
 0
 11
0.98020
 21
8.60736
  0
LINE
  8
Gravur
 62
   255
 39
0.016
  6
CONTINUOUS
 10
0.98020
 20
8.60736
 30
 0
 11
0.97720
 21
8.60579
  0
LINE
  8
Gravur
 62
   255
 39
0.016
  6
CONTINUOUS
 10
0.97720
 20
8.60579
 30
 0
 11
0.97445
 21
8.60370
  0
LINE
  8
Gravur
 62
   255
 39
0.016
  6
CONTINUOUS
 10
0.97445
 20
8.60370
 30
 0
 11
0.97201
 21
8.60118
  0
LINE
  8
Gravur
 62
   255
 39
0.016
  6
CONTINUOUS
 10
0.97201
 20
8.60118
 30
 0
 11
0.96988
 21
8.59827
  0
LINE
  8
Gravur
 62
   255
 39
0.016
  6
CONTINUOUS
 10
0.96988
 20
8.59827
 30
 0
 11
0.96823
 21
8.59504
  0
LINE
  8
Gravur
 62
   255
 39
0.016
  6
CONTINUOUS
 10
0.96823
 20
8.59504
 30
 0
 11
0.96705
 21
8.59161
  0
LINE
  8
Gravur
 62
   255
 39
0.016
  6
CONTINUOUS
 10
0.96705
 20
8.59161
 30
 0
 11
0.96630
 21
8.58799
  0
LINE
  8
Gravur
 62
   255
 39
0.016
  6
CONTINUOUS
 10
0.96630
 20
8.58799
 30
 0
 11
0.96602
 21
8.58429
  0
LINE
  8
Gravur
 62
   255
 39
0.016
  6
CONTINUOUS
 10
0.96602
 20
8.58429
 30
 0
 11
0.96602
 21
8.58429
  0
LINE
  8
Gravur
 62
   255
 39
0.016
  6
CONTINUOUS
 10
0.96602
 20
8.58429
 30
 0
 11
0.96602
 21
8.52366
  0
LINE
  8
Gravur
 62
   255
 39
0.016
  6
CONTINUOUS
 10
0.99827
 20
8.51539
 30
 0
 11
1.01315
 21
8.49886
  0
ARC
  8
Gravur
 62
   255
 39
0.008
  6
CONTINUOUS
 10
0.15248
 20
7.85461
 30
 0
 40
0.01949
 50
91.50439
 51
-174.78461
  0
ARC
  8
Gravur
 62
   255
 39
0.008
  6
CONTINUOUS
 10
0.15295
 20
7.85354
 30
 0
 40
0.02059
 50
330.44533
 51
92.74196
  0
LINE
  8
Gravur
 62
   255
 39
0.008
  6
CONTINUOUS
 10
0.17087
 20
7.84339
 30
 0
 11
0.13307
 21
7.77961
  0
LINE
  8
Gravur
 62
   255
 39
0.008
  6
CONTINUOUS
 10
0.13307
 20
7.77961
 30
 0
 11
0.17323
 21
7.77961
  0
ARC
  8
Gravur
 62
   255
 39
0.008
  6
CONTINUOUS
 10
0.24882
 20
8.21882
 30
 0
 40
0.01937
 50
434.80614
 51
175.92268
  0
ARC
  8
Gravur
 62
   255
 39
0.008
  6
CONTINUOUS
 10
0.24843
 20
8.21732
 30
 0
 40
0.02091
 50
263.39742
 51
74.83943
  0
ARC
  8
Gravur
 62
   255
 39
0.008
  6
CONTINUOUS
 10
0.24921
 20
8.17098
 30
 0
 40
0.02579
 50
285.86128
 51
97.10332
  0
ARC
  8
Gravur
 62
   255
 39
0.008
  6
CONTINUOUS
 10
0.24976
 20
8.16799
 30
 0
 40
0.02276
 50
185.36509
 51
-73.41468
  0
LINE
  8
Gravur
 62
   255
 39
0.008
  6
CONTINUOUS
 10
0.52890
 20
8.50630
 30
 0
 11
0.49819
 21
8.43543
  0
LINE
  8
Gravur
 62
   255
 39
0.008
  6
CONTINUOUS
 10
0.49819
 20
8.43543
 30
 0
 11
0.53835
 21
8.43543
  0
LINE
  8
Gravur
 62
   255
 39
0.008
  6
CONTINUOUS
 10
0.52890
 20
8.45906
 30
 0
 11
0.52890
 21
8.41181
  0
LINE
  8
Gravur
 62
   255
 39
0.008
  6
CONTINUOUS
 10
0.24043
 20
7.48547
 30
 0
 11
0.26169
 21
7.50909
  0
LINE
  8
Gravur
 62
   255
 39
0.008
  6
CONTINUOUS
 10
0.26169
 20
7.50909
 30
 0
 11
0.26169
 21
7.41461
  0
ARC
  8
Gravur
 62
   255
 39
0.008
  6
CONTINUOUS
 10
0.51827
 20
7.16866
 30
 0
 40
0.02126
 50
180.00000
 51
360.00000
  0
LINE
  8
Gravur
 62
   255
 39
0.008
  6
CONTINUOUS
 10
0.53953
 20
7.16866
 30
 0
 11
0.53953
 21
7.22063
  0
ARC
  8
Gravur
 62
   255
 39
0.008
  6
CONTINUOUS
 10
0.51827
 20
7.22063
 30
 0
 40
0.02126
 50
0.00000
 51
180.00000
  0
LINE
  8
Gravur
 62
   255
 39
0.008
  6
CONTINUOUS
 10
0.49701
 20
7.22063
 30
 0
 11
0.49701
 21
7.16866
  0
LINE
  8
Gravur
 62
   255
 39
0.008
  6
CONTINUOUS
 10
1.20299
 20
7.21827
 30
 0
 11
1.22425
 21
7.24189
  0
LINE
  8
Gravur
 62
   255
 39
0.008
  6
CONTINUOUS
 10
1.22425
 20
7.24189
 30
 0
 11
1.22425
 21
7.14740
  0
ARC
  8
Gravur
 62
   255
 39
0.008
  6
CONTINUOUS
 10
1.27228
 20
7.16866
 30
 0
 40
0.02126
 50
180.00000
 51
360.00000
  0
LINE
  8
Gravur
 62
   255
 39
0.008
  6
CONTINUOUS
 10
1.29354
 20
7.16866
 30
 0
 11
1.29354
 21
7.22063
  0
ARC
  8
Gravur
 62
   255
 39
0.008
  6
CONTINUOUS
 10
1.27228
 20
7.22063
 30
 0
 40
0.02126
 50
0.00000
 51
180.00000
  0
LINE
  8
Gravur
 62
   255
 39
0.008
  6
CONTINUOUS
 10
1.25102
 20
7.22063
 30
 0
 11
1.25102
 21
7.16866
  0
ARC
  8
Gravur
 62
   255
 39
0.008
  6
CONTINUOUS
 10
1.51744
 20
7.43539
 30
 0
 40
0.02087
 50
178.70296
 51
264.59040
  0
ARC
  8
Gravur
 62
   255
 39
0.008
  6
CONTINUOUS
 10
1.51476
 20
7.43421
 30
 0
 40
0.01961
 50
-87.92997
 51
-2.07003
  0
LINE
  8
Gravur
 62
   255
 39
0.008
  6
CONTINUOUS
 10
1.53437
 20
7.43350
 30
 0
 11
1.53437
 21
7.49020
  0
ARC
  8
Gravur
 62
   255
 39
0.008
  6
CONTINUOUS
 10
1.51547
 20
7.49020
 30
 0
 40
0.01890
 50
0.00000
 51
180.00000
  0
LINE
  8
Gravur
 62
   255
 39
0.008
  6
CONTINUOUS
 10
1.49657
 20
7.49020
 30
 0
 11
1.49657
 21
7.47602
  0
ARC
  8
Gravur
 62
   255
 39
0.008
  6
CONTINUOUS
 10
1.51606
 20
7.47827
 30
 0
 40
0.01961
 50
-173.43124
 51
-20.83908
  0
ARC
  8
Gravur
 62
   255
 39
0.008
  6
CONTINUOUS
 10
1.61339
 20
7.79996
 30
 0
 40
0.02035
 50
-90.33247
 51
0.33247
  0
LINE
  8
Gravur
 62
   255
 39
0.008
  6
CONTINUOUS
 10
1.63374
 20
7.80008
 30
 0
 11
1.63374
 21
7.80717
  0
ARC
  8
Gravur
 62
   255
 39
0.008
  6
CONTINUOUS
 10
1.61378
 20
7.80689
 30
 0
 40
0.01996
 50
0.79102
 51
91.46880
  0
ARC
  8
Gravur
 62
   255
 39
0.008
  6
CONTINUOUS
 10
1.61339
 20
7.84563
 30
 0
 40
0.01878
 50
-90.36035
 51
0.36035
  0
LINE
  8
Gravur
 62
   255
 39
0.008
  6
CONTINUOUS
 10
1.63217
 20
7.84575
 30
 0
 11
1.63217
 21
7.85520
  0
ARC
  8
Gravur
 62
   255
 39
0.008
  6
CONTINUOUS
 10
1.61327
 20
7.85520
 30
 0
 40
0.01890
 50
0.00000
 51
180.00000
  0
LINE
  8
Gravur
 62
   255
 39
0.008
  6
CONTINUOUS
 10
1.59437
 20
7.85520
 30
 0
 11
1.59437
 21
7.84575
  0
ARC
  8
Gravur
 62
   255
 39
0.008
  6
CONTINUOUS
 10
1.61315
 20
7.84563
 30
 0
 40
0.01878
 50
179.63965
 51
270.36035
  0
ARC
  8
Gravur
 62
   255
 39
0.008
  6
CONTINUOUS
 10
1.61276
 20
7.80689
 30
 0
 40
0.01996
 50
88.53120
 51
179.20898
  0
LINE
  8
Gravur
 62
   255
 39
0.008
  6
CONTINUOUS
 10
1.59280
 20
7.80717
 30
 0
 11
1.59280
 21
7.80008
  0
ARC
  8
Gravur
 62
   255
 39
0.008
  6
CONTINUOUS
 10
1.61315
 20
7.79996
 30
 0
 40
0.02035
 50
179.66753
 51
270.33247
  0
LINE
  8
Gravur
 62
   255
 39
0.008
  6
CONTINUOUS
 10
1.49539
 20
8.22256
 30
 0
 11
1.49539
 21
8.23909
  0
LINE
  8
Gravur
 62
   255
 39
0.008
  6
CONTINUOUS
 10
1.49539
 20
8.23909
 30
 0
 11
1.53555
 21
8.23909
  0
LINE
  8
Gravur
 62
   255
 39
0.008
  6
CONTINUOUS
 10
1.53555
 20
8.23909
 30
 0
 11
1.50484
 21
8.14461
  0
ARC
  8
Gravur
 62
   255
 39
0.008
  6
CONTINUOUS
 10
1.24752
 20
8.48551
 30
 0
 40
0.02087
 50
-1.29704
 51
84.59040
  0
ARC
  8
Gravur
 62
   255
 39
0.008
  6
CONTINUOUS
 10
1.24772
 20
8.48689
 30
 0
 40
0.01949
 50
84.78461
 51
178.49561
  0
LINE
  8
Gravur
 62
   255
 39
0.008
  6
CONTINUOUS
 10
1.22823
 20
8.48740
 30
 0
 11
1.22823
 21
8.43071
  0
ARC
  8
Gravur
 62
   255
 39
0.008
  6
CONTINUOUS
 10
1.24933
 20
8.43291
 30
 0
 40
0.02122
 50
-174.03551
 51
-95.96449
  0
ARC
  8
Gravur
 62
   255
 39
0.008
  6
CONTINUOUS
 10
1.24760
 20
8.43268
 30
 0
 40
0.02087
 50
-91.29704
 51
-5.40960
  0
LINE
  8
Gravur
 62
   255
 39
0.008
  6
CONTINUOUS
 10
1.26839
 20
8.43071
 30
 0
 11
1.26839
 21
8.44961
  0
ARC
  8
Gravur
 62
   255
 39
0.008
  6
CONTINUOUS
 10
1.24724
 20
8.44720
 30
 0
 40
0.02126
 50
6.48068
 51
153.48242
  0
LINE
  8
Gravur
 62
   255
 39
0.016
  6
CONTINUOUS
 10
0.67417
 20
6.98409
 30
 0
 11
0.67417
 21
6.87386
  0
LINE
  8
Gravur
 62
   255
 39
0.016
  6
CONTINUOUS
 10
0.67417
 20
6.87386
 30
 0
 11
0.67417
 21
6.91244
  0
LINE
  8
Gravur
 62
   255
 39
0.016
  6
CONTINUOUS
 10
0.67417
 20
6.91244
 30
 0
 11
0.71882
 21
6.98409
  0
LINE
  8
Gravur
 62
   255
 39
0.016
  6
CONTINUOUS
 10
0.69154
 20
6.94000
 30
 0
 11
0.71882
 21
6.87386
  0
LINE
  8
Gravur
 62
   255
 39
0.016
  6
CONTINUOUS
 10
0.74693
 20
6.98409
 30
 0
 11
0.74693
 21
6.87386
  0
LINE
  8
Gravur
 62
   255
 39
0.016
  6
CONTINUOUS
 10
0.74693
 20
6.87386
 30
 0
 11
0.76925
 21
6.87386
  0
LINE
  8
Gravur
 62
   255
 39
0.016
  6
CONTINUOUS
 10
0.76925
 20
6.87386
 30
 0
 11
0.77287
 21
6.87433
  0
LINE
  8
Gravur
 62
   255
 39
0.016
  6
CONTINUOUS
 10
0.77287
 20
6.87433
 30
 0
 11
0.77646
 21
6.87535
  0
LINE
  8
Gravur
 62
   255
 39
0.016
  6
CONTINUOUS
 10
0.77646
 20
6.87535
 30
 0
 11
0.77984
 21
6.87697
  0
LINE
  8
Gravur
 62
   255
 39
0.016
  6
CONTINUOUS
 10
0.77984
 20
6.87697
 30
 0
 11
0.78299
 21
6.87909
  0
LINE
  8
Gravur
 62
   255
 39
0.016
  6
CONTINUOUS
 10
0.78299
 20
6.87909
 30
 0
 11
0.78583
 21
6.88169
  0
LINE
  8
Gravur
 62
   255
 39
0.016
  6
CONTINUOUS
 10
0.78583
 20
6.88169
 30
 0
 11
0.78827
 21
6.88476
  0
LINE
  8
Gravur
 62
   255
 39
0.016
  6
CONTINUOUS
 10
0.78827
 20
6.88476
 30
 0
 11
0.79028
 21
6.88819
  0
LINE
  8
Gravur
 62
   255
 39
0.016
  6
CONTINUOUS
 10
0.79028
 20
6.88819
 30
 0
 11
0.79189
 21
6.89189
  0
LINE
  8
Gravur
 62
   255
 39
0.016
  6
CONTINUOUS
 10
0.79189
 20
6.89189
 30
 0
 11
0.79291
 21
6.89579
  0
LINE
  8
Gravur
 62
   255
 39
0.016
  6
CONTINUOUS
 10
0.79291
 20
6.89579
 30
 0
 11
0.79346
 21
6.89984
  0
LINE
  8
Gravur
 62
   255
 39
0.016
  6
CONTINUOUS
 10
0.79346
 20
6.89984
 30
 0
 11
0.79346
 21
6.90394
  0
LINE
  8
Gravur
 62
   255
 39
0.016
  6
CONTINUOUS
 10
0.79346
 20
6.90394
 30
 0
 11
0.79295
 21
6.90799
  0
LINE
  8
Gravur
 62
   255
 39
0.016
  6
CONTINUOUS
 10
0.79295
 20
6.90799
 30
 0
 11
0.79189
 21
6.91189
  0
LINE
  8
Gravur
 62
   255
 39
0.016
  6
CONTINUOUS
 10
0.79189
 20
6.91189
 30
 0
 11
0.79031
 21
6.91559
  0
LINE
  8
Gravur
 62
   255
 39
0.016
  6
CONTINUOUS
 10
0.79031
 20
6.91559
 30
 0
 11
0.78827
 21
6.91902
  0
LINE
  8
Gravur
 62
   255
 39
0.016
  6
CONTINUOUS
 10
0.78827
 20
6.91902
 30
 0
 11
0.78583
 21
6.92209
  0
LINE
  8
Gravur
 62
   255
 39
0.016
  6
CONTINUOUS
 10
0.78583
 20
6.92209
 30
 0
 11
0.78299
 21
6.92469
  0
LINE
  8
Gravur
 62
   255
 39
0.016
  6
CONTINUOUS
 10
0.78299
 20
6.92469
 30
 0
 11
0.77984
 21
6.92681
  0
LINE
  8
Gravur
 62
   255
 39
0.016
  6
CONTINUOUS
 10
0.77984
 20
6.92681
 30
 0
 11
0.77646
 21
6.92843
  0
LINE
  8
Gravur
 62
   255
 39
0.016
  6
CONTINUOUS
 10
0.77646
 20
6.92843
 30
 0
 11
0.77287
 21
6.92945
  0
LINE
  8
Gravur
 62
   255
 39
0.016
  6
CONTINUOUS
 10
0.77287
 20
6.92945
 30
 0
 11
0.76925
 21
6.92992
  0
LINE
  8
Gravur
 62
   255
 39
0.016
  6
CONTINUOUS
 10
0.76925
 20
6.92992
 30
 0
 11
0.76925
 21
6.92988
  0
LINE
  8
Gravur
 62
   255
 39
0.016
  6
CONTINUOUS
 10
0.76925
 20
6.92988
 30
 0
 11
0.74693
 21
6.92988
  0
LINE
  8
Gravur
 62
   255
 39
0.016
  6
CONTINUOUS
 10
0.74693
 20
6.92988
 30
 0
 11
0.76925
 21
6.92988
  0
LINE
  8
Gravur
 62
   255
 39
0.016
  6
CONTINUOUS
 10
0.76925
 20
6.92988
 30
 0
 11
0.77283
 21
6.93039
  0
LINE
  8
Gravur
 62
   255
 39
0.016
  6
CONTINUOUS
 10
0.77283
 20
6.93039
 30
 0
 11
0.77630
 21
6.93146
  0
LINE
  8
Gravur
 62
   255
 39
0.016
  6
CONTINUOUS
 10
0.77630
 20
6.93146
 30
 0
 11
0.77957
 21
6.93311
  0
LINE
  8
Gravur
 62
   255
 39
0.016
  6
CONTINUOUS
 10
0.77957
 20
6.93311
 30
 0
 11
0.78264
 21
6.93528
  0
LINE
  8
Gravur
 62
   255
 39
0.016
  6
CONTINUOUS
 10
0.78264
 20
6.93528
 30
 0
 11
0.78535
 21
6.93791
  0
LINE
  8
Gravur
 62
   255
 39
0.016
  6
CONTINUOUS
 10
0.78535
 20
6.93791
 30
 0
 11
0.78772
 21
6.94094
  0
LINE
  8
Gravur
 62
   255
 39
0.016
  6
CONTINUOUS
 10
0.78772
 20
6.94094
 30
 0
 11
0.78961
 21
6.94433
  0
LINE
  8
Gravur
 62
   255
 39
0.016
  6
CONTINUOUS
 10
0.78961
 20
6.94433
 30
 0
 11
0.79102
 21
6.94803
  0
LINE
  8
Gravur
 62
   255
 39
0.016
  6
CONTINUOUS
 10
0.79102
 20
6.94803
 30
 0
 11
0.79197
 21
6.95189
  0
LINE
  8
Gravur
 62
   255
 39
0.016
  6
CONTINUOUS
 10
0.79197
 20
6.95189
 30
 0
 11
0.79236
 21
6.95591
  0
LINE
  8
Gravur
 62
   255
 39
0.016
  6
CONTINUOUS
 10
0.79236
 20
6.95591
 30
 0
 11
0.79228
 21
6.95988
  0
LINE
  8
Gravur
 62
   255
 39
0.016
  6
CONTINUOUS
 10
0.79228
 20
6.95988
 30
 0
 11
0.79161
 21
6.96386
  0
LINE
  8
Gravur
 62
   255
 39
0.016
  6
CONTINUOUS
 10
0.79161
 20
6.96386
 30
 0
 11
0.79043
 21
6.96764
  0
LINE
  8
Gravur
 62
   255
 39
0.016
  6
CONTINUOUS
 10
0.79043
 20
6.96764
 30
 0
 11
0.78878
 21
6.97118
  0
LINE
  8
Gravur
 62
   255
 39
0.016
  6
CONTINUOUS
 10
0.78878
 20
6.97118
 30
 0
 11
0.78665
 21
6.97445
  0
LINE
  8
Gravur
 62
   255
 39
0.016
  6
CONTINUOUS
 10
0.78665
 20
6.97445
 30
 0
 11
0.78417
 21
6.97732
  0
LINE
  8
Gravur
 62
   255
 39
0.016
  6
CONTINUOUS
 10
0.78417
 20
6.97732
 30
 0
 11
0.78126
 21
6.97972
  0
LINE
  8
Gravur
 62
   255
 39
0.016
  6
CONTINUOUS
 10
0.78126
 20
6.97972
 30
 0
 11
0.77811
 21
6.98165
  0
LINE
  8
Gravur
 62
   255
 39
0.016
  6
CONTINUOUS
 10
0.77811
 20
6.98165
 30
 0
 11
0.77469
 21
6.98303
  0
LINE
  8
Gravur
 62
   255
 39
0.016
  6
CONTINUOUS
 10
0.77469
 20
6.98303
 30
 0
 11
0.77118
 21
6.98386
  0
LINE
  8
Gravur
 62
   255
 39
0.016
  6
CONTINUOUS
 10
0.77118
 20
6.98386
 30
 0
 11
0.76756
 21
6.98409
  0
LINE
  8
Gravur
 62
   255
 39
0.016
  6
CONTINUOUS
 10
0.76756
 20
6.98409
 30
 0
 11
0.74693
 21
6.98409
  0
LINE
  8
Gravur
 62
   255
 39
0.016
  6
CONTINUOUS
 10
0.82299
 20
6.87386
 30
 0
 11
0.82299
 21
6.98409
  0
LINE
  8
Gravur
 62
   255
 39
0.016
  6
CONTINUOUS
 10
0.82299
 20
6.98409
 30
 0
 11
0.84283
 21
6.98409
  0
LINE
  8
Gravur
 62
   255
 39
0.016
  6
CONTINUOUS
 10
0.84283
 20
6.98409
 30
 0
 11
0.84646
 21
6.98382
  0
LINE
  8
Gravur
 62
   255
 39
0.016
  6
CONTINUOUS
 10
0.84646
 20
6.98382
 30
 0
 11
0.85000
 21
6.98295
  0
LINE
  8
Gravur
 62
   255
 39
0.016
  6
CONTINUOUS
 10
0.85000
 20
6.98295
 30
 0
 11
0.85335
 21
6.98154
  0
LINE
  8
Gravur
 62
   255
 39
0.016
  6
CONTINUOUS
 10
0.85335
 20
6.98154
 30
 0
 11
0.85654
 21
6.97957
  0
LINE
  8
Gravur
 62
   255
 39
0.016
  6
CONTINUOUS
 10
0.85654
 20
6.97957
 30
 0
 11
0.85941
 21
6.97713
  0
LINE
  8
Gravur
 62
   255
 39
0.016
  6
CONTINUOUS
 10
0.85941
 20
6.97713
 30
 0
 11
0.86193
 21
6.97425
  0
LINE
  8
Gravur
 62
   255
 39
0.016
  6
CONTINUOUS
 10
0.86193
 20
6.97425
 30
 0
 11
0.86402
 21
6.97098
  0
LINE
  8
Gravur
 62
   255
 39
0.016
  6
CONTINUOUS
 10
0.86402
 20
6.97098
 30
 0
 11
0.86567
 21
6.96740
  0
LINE
  8
Gravur
 62
   255
 39
0.016
  6
CONTINUOUS
 10
0.86567
 20
6.96740
 30
 0
 11
0.86685
 21
6.96358
  0
LINE
  8
Gravur
 62
   255
 39
0.016
  6
CONTINUOUS
 10
0.86685
 20
6.96358
 30
 0
 11
0.86748
 21
6.95965
  0
LINE
  8
Gravur
 62
   255
 39
0.016
  6
CONTINUOUS
 10
0.86748
 20
6.95965
 30
 0
 11
0.86764
 21
6.95654
  0
LINE
  8
Gravur
 62
   255
 39
0.016
  6
CONTINUOUS
 10
0.86764
 20
6.95654
 30
 0
 11
0.86764
 21
6.90142
  0
LINE
  8
Gravur
 62
   255
 39
0.016
  6
CONTINUOUS
 10
0.86764
 20
6.90142
 30
 0
 11
0.86740
 21
6.89740
  0
LINE
  8
Gravur
 62
   255
 39
0.016
  6
CONTINUOUS
 10
0.86740
 20
6.89740
 30
 0
 11
0.86661
 21
6.89346
  0
LINE
  8
Gravur
 62
   255
 39
0.016
  6
CONTINUOUS
 10
0.86661
 20
6.89346
 30
 0
 11
0.86531
 21
6.88972
  0
LINE
  8
Gravur
 62
   255
 39
0.016
  6
CONTINUOUS
 10
0.86531
 20
6.88972
 30
 0
 11
0.86354
 21
6.88618
  0
LINE
  8
Gravur
 62
   255
 39
0.016
  6
CONTINUOUS
 10
0.86354
 20
6.88618
 30
 0
 11
0.86138
 21
6.88299
  0
LINE
  8
Gravur
 62
   255
 39
0.016
  6
CONTINUOUS
 10
0.86138
 20
6.88299
 30
 0
 11
0.85878
 21
6.88020
  0
LINE
  8
Gravur
 62
   255
 39
0.016
  6
CONTINUOUS
 10
0.85878
 20
6.88020
 30
 0
 11
0.85583
 21
6.87787
  0
LINE
  8
Gravur
 62
   255
 39
0.016
  6
CONTINUOUS
 10
0.85583
 20
6.87787
 30
 0
 11
0.85260
 21
6.87602
  0
LINE
  8
Gravur
 62
   255
 39
0.016
  6
CONTINUOUS
 10
0.85260
 20
6.87602
 30
 0
 11
0.84917
 21
6.87472
  0
LINE
  8
Gravur
 62
   255
 39
0.016
  6
CONTINUOUS
 10
0.84917
 20
6.87472
 30
 0
 11
0.84563
 21
6.87402
  0
LINE
  8
Gravur
 62
   255
 39
0.016
  6
CONTINUOUS
 10
0.84563
 20
6.87402
 30
 0
 11
0.84283
 21
6.87386
  0
LINE
  8
Gravur
 62
   255
 39
0.016
  6
CONTINUOUS
 10
0.84283
 20
6.87386
 30
 0
 11
0.82299
 21
6.87386
  0
LINE
  8
Gravur
 62
   255
 39
0.016
  6
CONTINUOUS
 10
1.01807
 20
6.96020
 30
 0
 11
1.01772
 21
6.96366
  0
LINE
  8
Gravur
 62
   255
 39
0.016
  6
CONTINUOUS
 10
1.01772
 20
6.96366
 30
 0
 11
1.01693
 21
6.96701
  0
LINE
  8
Gravur
 62
   255
 39
0.016
  6
CONTINUOUS
 10
1.01693
 20
6.96701
 30
 0
 11
1.01567
 21
6.97020
  0
LINE
  8
Gravur
 62
   255
 39
0.016
  6
CONTINUOUS
 10
1.01567
 20
6.97020
 30
 0
 11
1.01406
 21
6.97315
  0
LINE
  8
Gravur
 62
   255
 39
0.016
  6
CONTINUOUS
 10
1.01406
 20
6.97315
 30
 0
 11
1.01205
 21
6.97583
  0
LINE
  8
Gravur
 62
   255
 39
0.016
  6
CONTINUOUS
 10
1.01205
 20
6.97583
 30
 0
 11
1.00972
 21
6.97815
  0
LINE
  8
Gravur
 62
   255
 39
0.016
  6
CONTINUOUS
 10
1.00972
 20
6.97815
 30
 0
 11
1.00709
 21
6.98004
  0
LINE
  8
Gravur
 62
   255
 39
0.016
  6
CONTINUOUS
 10
1.00709
 20
6.98004
 30
 0
 11
1.00425
 21
6.98154
  0
LINE
  8
Gravur
 62
   255
 39
0.016
  6
CONTINUOUS
 10
1.00425
 20
6.98154
 30
 0
 11
1.00126
 21
6.98252
  0
LINE
  8
Gravur
 62
   255
 39
0.016
  6
CONTINUOUS
 10
1.00126
 20
6.98252
 30
 0
 11
0.99819
 21
6.98303
  0
LINE
  8
Gravur
 62
   255
 39
0.016
  6
CONTINUOUS
 10
0.99819
 20
6.98303
 30
 0
 11
0.99504
 21
6.98303
  0
LINE
  8
Gravur
 62
   255
 39
0.016
  6
CONTINUOUS
 10
0.99504
 20
6.98303
 30
 0
 11
0.99193
 21
6.98252
  0
LINE
  8
Gravur
 62
   255
 39
0.016
  6
CONTINUOUS
 10
0.99193
 20
6.98252
 30
 0
 11
0.98898
 21
6.98154
  0
LINE
  8
Gravur
 62
   255
 39
0.016
  6
CONTINUOUS
 10
0.98898
 20
6.98154
 30
 0
 11
0.98614
 21
6.98004
  0
LINE
  8
Gravur
 62
   255
 39
0.016
  6
CONTINUOUS
 10
0.98614
 20
6.98004
 30
 0
 11
0.98350
 21
6.97815
  0
LINE
  8
Gravur
 62
   255
 39
0.016
  6
CONTINUOUS
 10
0.98350
 20
6.97815
 30
 0
 11
0.98118
 21
6.97583
  0
LINE
  8
Gravur
 62
   255
 39
0.016
  6
CONTINUOUS
 10
0.98118
 20
6.97583
 30
 0
 11
0.97917
 21
6.97315
  0
LINE
  8
Gravur
 62
   255
 39
0.016
  6
CONTINUOUS
 10
0.97917
 20
6.97315
 30
 0
 11
0.97756
 21
6.97020
  0
LINE
  8
Gravur
 62
   255
 39
0.016
  6
CONTINUOUS
 10
0.97756
 20
6.97020
 30
 0
 11
0.97630
 21
6.96701
  0
LINE
  8
Gravur
 62
   255
 39
0.016
  6
CONTINUOUS
 10
0.97630
 20
6.96701
 30
 0
 11
0.97551
 21
6.96366
  0
LINE
  8
Gravur
 62
   255
 39
0.016
  6
CONTINUOUS
 10
0.97551
 20
6.96366
 30
 0
 11
0.97516
 21
6.96020
  0
LINE
  8
Gravur
 62
   255
 39
0.016
  6
CONTINUOUS
 10
0.97516
 20
6.96020
 30
 0
 11
0.97512
 21
6.96020
  0
LINE
  8
Gravur
 62
   255
 39
0.016
  6
CONTINUOUS
 10
0.97512
 20
6.96020
 30
 0
 11
0.97512
 21
6.89776
  0
LINE
  8
Gravur
 62
   255
 39
0.016
  6
CONTINUOUS
 10
0.97512
 20
6.89776
 30
 0
 11
0.97547
 21
6.89429
  0
LINE
  8
Gravur
 62
   255
 39
0.016
  6
CONTINUOUS
 10
0.97547
 20
6.89429
 30
 0
 11
0.97626
 21
6.89094
  0
LINE
  8
Gravur
 62
   255
 39
0.016
  6
CONTINUOUS
 10
0.97626
 20
6.89094
 30
 0
 11
0.97752
 21
6.88772
  0
LINE
  8
Gravur
 62
   255
 39
0.016
  6
CONTINUOUS
 10
0.97752
 20
6.88772
 30
 0
 11
0.97913
 21
6.88476
  0
LINE
  8
Gravur
 62
   255
 39
0.016
  6
CONTINUOUS
 10
0.97913
 20
6.88476
 30
 0
 11
0.98118
 21
6.88209
  0
LINE
  8
Gravur
 62
   255
 39
0.016
  6
CONTINUOUS
 10
0.98118
 20
6.88209
 30
 0
 11
0.98350
 21
6.87976
  0
LINE
  8
Gravur
 62
   255
 39
0.016
  6
CONTINUOUS
 10
0.98350
 20
6.87976
 30
 0
 11
0.98610
 21
6.87787
  0
LINE
  8
Gravur
 62
   255
 39
0.016
  6
CONTINUOUS
 10
0.98610
 20
6.87787
 30
 0
 11
0.98898
 21
6.87638
  0
LINE
  8
Gravur
 62
   255
 39
0.016
  6
CONTINUOUS
 10
0.98898
 20
6.87638
 30
 0
 11
0.99193
 21
6.87539
  0
LINE
  8
Gravur
 62
   255
 39
0.016
  6
CONTINUOUS
 10
0.99193
 20
6.87539
 30
 0
 11
0.99504
 21
6.87488
  0
LINE
  8
Gravur
 62
   255
 39
0.016
  6
CONTINUOUS
 10
0.99504
 20
6.87488
 30
 0
 11
0.99819
 21
6.87488
  0
LINE
  8
Gravur
 62
   255
 39
0.016
  6
CONTINUOUS
 10
0.99819
 20
6.87488
 30
 0
 11
1.00130
 21
6.87539
  0
LINE
  8
Gravur
 62
   255
 39
0.016
  6
CONTINUOUS
 10
1.00130
 20
6.87539
 30
 0
 11
1.00425
 21
6.87638
  0
LINE
  8
Gravur
 62
   255
 39
0.016
  6
CONTINUOUS
 10
1.00425
 20
6.87638
 30
 0
 11
1.00709
 21
6.87787
  0
LINE
  8
Gravur
 62
   255
 39
0.016
  6
CONTINUOUS
 10
1.00709
 20
6.87787
 30
 0
 11
1.00972
 21
6.87976
  0
LINE
  8
Gravur
 62
   255
 39
0.016
  6
CONTINUOUS
 10
1.00972
 20
6.87976
 30
 0
 11
1.01205
 21
6.88209
  0
LINE
  8
Gravur
 62
   255
 39
0.016
  6
CONTINUOUS
 10
1.01205
 20
6.88209
 30
 0
 11
1.01409
 21
6.88476
  0
LINE
  8
Gravur
 62
   255
 39
0.016
  6
CONTINUOUS
 10
1.01409
 20
6.88476
 30
 0
 11
1.01571
 21
6.88772
  0
LINE
  8
Gravur
 62
   255
 39
0.016
  6
CONTINUOUS
 10
1.01571
 20
6.88772
 30
 0
 11
1.01697
 21
6.89094
  0
LINE
  8
Gravur
 62
   255
 39
0.016
  6
CONTINUOUS
 10
1.01697
 20
6.89094
 30
 0
 11
1.01776
 21
6.89429
  0
LINE
  8
Gravur
 62
   255
 39
0.016
  6
CONTINUOUS
 10
1.01776
 20
6.89429
 30
 0
 11
1.01811
 21
6.89776
  0
LINE
  8
Gravur
 62
   255
 39
0.016
  6
CONTINUOUS
 10
1.01811
 20
6.89776
 30
 0
 11
1.01807
 21
6.89776
  0
LINE
  8
Gravur
 62
   255
 39
0.016
  6
CONTINUOUS
 10
1.04622
 20
6.98409
 30
 0
 11
1.06854
 21
6.87386
  0
LINE
  8
Gravur
 62
   255
 39
0.016
  6
CONTINUOUS
 10
1.06854
 20
6.87386
 30
 0
 11
1.09087
 21
6.98409
  0
ARC
  8
Gravur
 62
   255
 39
0.008
  6
CONTINUOUS
 10
0.15248
 20
6.22972
 30
 0
 40
0.01949
 50
91.50439
 51
-174.78461
  0
ARC
  8
Gravur
 62
   255
 39
0.008
  6
CONTINUOUS
 10
0.15295
 20
6.22866
 30
 0
 40
0.02059
 50
330.44533
 51
92.74196
  0
LINE
  8
Gravur
 62
   255
 39
0.008
  6
CONTINUOUS
 10
0.17087
 20
6.21850
 30
 0
 11
0.13307
 21
6.15472
  0
LINE
  8
Gravur
 62
   255
 39
0.008
  6
CONTINUOUS
 10
0.13307
 20
6.15472
 30
 0
 11
0.17323
 21
6.15472
  0
ARC
  8
Gravur
 62
   255
 39
0.008
  6
CONTINUOUS
 10
0.24882
 20
6.59394
 30
 0
 40
0.01937
 50
434.80614
 51
175.92268
  0
ARC
  8
Gravur
 62
   255
 39
0.008
  6
CONTINUOUS
 10
0.24843
 20
6.59244
 30
 0
 40
0.02091
 50
263.39742
 51
74.83943
  0
ARC
  8
Gravur
 62
   255
 39
0.008
  6
CONTINUOUS
 10
0.24921
 20
6.54610
 30
 0
 40
0.02579
 50
285.86128
 51
97.10332
  0
ARC
  8
Gravur
 62
   255
 39
0.008
  6
CONTINUOUS
 10
0.24976
 20
6.54311
 30
 0
 40
0.02276
 50
185.36509
 51
-73.41468
  0
LINE
  8
Gravur
 62
   255
 39
0.008
  6
CONTINUOUS
 10
0.52890
 20
6.88142
 30
 0
 11
0.49819
 21
6.81055
  0
LINE
  8
Gravur
 62
   255
 39
0.008
  6
CONTINUOUS
 10
0.49819
 20
6.81055
 30
 0
 11
0.53835
 21
6.81055
  0
LINE
  8
Gravur
 62
   255
 39
0.008
  6
CONTINUOUS
 10
0.52890
 20
6.83417
 30
 0
 11
0.52890
 21
6.78693
  0
LINE
  8
Gravur
 62
   255
 39
0.008
  6
CONTINUOUS
 10
0.24043
 20
5.86059
 30
 0
 11
0.26169
 21
5.88421
  0
LINE
  8
Gravur
 62
   255
 39
0.008
  6
CONTINUOUS
 10
0.26169
 20
5.88421
 30
 0
 11
0.26169
 21
5.78972
  0
ARC
  8
Gravur
 62
   255
 39
0.008
  6
CONTINUOUS
 10
0.51827
 20
5.54378
 30
 0
 40
0.02126
 50
180.00000
 51
360.00000
  0
LINE
  8
Gravur
 62
   255
 39
0.008
  6
CONTINUOUS
 10
0.53953
 20
5.54378
 30
 0
 11
0.53953
 21
5.59575
  0
ARC
  8
Gravur
 62
   255
 39
0.008
  6
CONTINUOUS
 10
0.51827
 20
5.59575
 30
 0
 40
0.02126
 50
0.00000
 51
180.00000
  0
LINE
  8
Gravur
 62
   255
 39
0.008
  6
CONTINUOUS
 10
0.49701
 20
5.59575
 30
 0
 11
0.49701
 21
5.54378
  0
LINE
  8
Gravur
 62
   255
 39
0.008
  6
CONTINUOUS
 10
1.20299
 20
5.59339
 30
 0
 11
1.22425
 21
5.61701
  0
LINE
  8
Gravur
 62
   255
 39
0.008
  6
CONTINUOUS
 10
1.22425
 20
5.61701
 30
 0
 11
1.22425
 21
5.52252
  0
ARC
  8
Gravur
 62
   255
 39
0.008
  6
CONTINUOUS
 10
1.27228
 20
5.54378
 30
 0
 40
0.02126
 50
180.00000
 51
360.00000
  0
LINE
  8
Gravur
 62
   255
 39
0.008
  6
CONTINUOUS
 10
1.29354
 20
5.54378
 30
 0
 11
1.29354
 21
5.59575
  0
ARC
  8
Gravur
 62
   255
 39
0.008
  6
CONTINUOUS
 10
1.27228
 20
5.59575
 30
 0
 40
0.02126
 50
0.00000
 51
180.00000
  0
LINE
  8
Gravur
 62
   255
 39
0.008
  6
CONTINUOUS
 10
1.25102
 20
5.59575
 30
 0
 11
1.25102
 21
5.54378
  0
ARC
  8
Gravur
 62
   255
 39
0.008
  6
CONTINUOUS
 10
1.51744
 20
5.81051
 30
 0
 40
0.02087
 50
178.70296
 51
264.59040
  0
ARC
  8
Gravur
 62
   255
 39
0.008
  6
CONTINUOUS
 10
1.51476
 20
5.80933
 30
 0
 40
0.01961
 50
-87.92997
 51
-2.07003
  0
LINE
  8
Gravur
 62
   255
 39
0.008
  6
CONTINUOUS
 10
1.53437
 20
5.80862
 30
 0
 11
1.53437
 21
5.86531
  0
ARC
  8
Gravur
 62
   255
 39
0.008
  6
CONTINUOUS
 10
1.51547
 20
5.86531
 30
 0
 40
0.01890
 50
0.00000
 51
180.00000
  0
LINE
  8
Gravur
 62
   255
 39
0.008
  6
CONTINUOUS
 10
1.49657
 20
5.86531
 30
 0
 11
1.49657
 21
5.85114
  0
ARC
  8
Gravur
 62
   255
 39
0.008
  6
CONTINUOUS
 10
1.51606
 20
5.85339
 30
 0
 40
0.01961
 50
-173.43124
 51
-20.83908
  0
ARC
  8
Gravur
 62
   255
 39
0.008
  6
CONTINUOUS
 10
1.61339
 20
6.17508
 30
 0
 40
0.02035
 50
-90.33247
 51
0.33247
  0
LINE
  8
Gravur
 62
   255
 39
0.008
  6
CONTINUOUS
 10
1.63374
 20
6.17520
 30
 0
 11
1.63374
 21
6.18228
  0
ARC
  8
Gravur
 62
   255
 39
0.008
  6
CONTINUOUS
 10
1.61378
 20
6.18201
 30
 0
 40
0.01996
 50
0.79102
 51
91.46880
  0
ARC
  8
Gravur
 62
   255
 39
0.008
  6
CONTINUOUS
 10
1.61339
 20
6.22075
 30
 0
 40
0.01878
 50
-90.36035
 51
0.36035
  0
LINE
  8
Gravur
 62
   255
 39
0.008
  6
CONTINUOUS
 10
1.63217
 20
6.22087
 30
 0
 11
1.63217
 21
6.23031
  0
ARC
  8
Gravur
 62
   255
 39
0.008
  6
CONTINUOUS
 10
1.61327
 20
6.23031
 30
 0
 40
0.01890
 50
0.00000
 51
180.00000
  0
LINE
  8
Gravur
 62
   255
 39
0.008
  6
CONTINUOUS
 10
1.59437
 20
6.23031
 30
 0
 11
1.59437
 21
6.22087
  0
ARC
  8
Gravur
 62
   255
 39
0.008
  6
CONTINUOUS
 10
1.61315
 20
6.22075
 30
 0
 40
0.01878
 50
179.63965
 51
270.36035
  0
ARC
  8
Gravur
 62
   255
 39
0.008
  6
CONTINUOUS
 10
1.61276
 20
6.18201
 30
 0
 40
0.01996
 50
88.53120
 51
179.20898
  0
LINE
  8
Gravur
 62
   255
 39
0.008
  6
CONTINUOUS
 10
1.59280
 20
6.18228
 30
 0
 11
1.59280
 21
6.17520
  0
ARC
  8
Gravur
 62
   255
 39
0.008
  6
CONTINUOUS
 10
1.61315
 20
6.17508
 30
 0
 40
0.02035
 50
179.66753
 51
270.33247
  0
LINE
  8
Gravur
 62
   255
 39
0.008
  6
CONTINUOUS
 10
1.49539
 20
6.59768
 30
 0
 11
1.49539
 21
6.61421
  0
LINE
  8
Gravur
 62
   255
 39
0.008
  6
CONTINUOUS
 10
1.49539
 20
6.61421
 30
 0
 11
1.53555
 21
6.61421
  0
LINE
  8
Gravur
 62
   255
 39
0.008
  6
CONTINUOUS
 10
1.53555
 20
6.61421
 30
 0
 11
1.50484
 21
6.51972
  0
ARC
  8
Gravur
 62
   255
 39
0.008
  6
CONTINUOUS
 10
1.24752
 20
6.86063
 30
 0
 40
0.02087
 50
-1.29704
 51
84.59040
  0
ARC
  8
Gravur
 62
   255
 39
0.008
  6
CONTINUOUS
 10
1.24772
 20
6.86201
 30
 0
 40
0.01949
 50
84.78461
 51
178.49561
  0
LINE
  8
Gravur
 62
   255
 39
0.008
  6
CONTINUOUS
 10
1.22823
 20
6.86252
 30
 0
 11
1.22823
 21
6.80583
  0
ARC
  8
Gravur
 62
   255
 39
0.008
  6
CONTINUOUS
 10
1.24933
 20
6.80803
 30
 0
 40
0.02122
 50
-174.03551
 51
-95.96449
  0
ARC
  8
Gravur
 62
   255
 39
0.008
  6
CONTINUOUS
 10
1.24760
 20
6.80780
 30
 0
 40
0.02087
 50
-91.29704
 51
-5.40960
  0
LINE
  8
Gravur
 62
   255
 39
0.008
  6
CONTINUOUS
 10
1.26839
 20
6.80583
 30
 0
 11
1.26839
 21
6.82472
  0
ARC
  8
Gravur
 62
   255
 39
0.008
  6
CONTINUOUS
 10
1.24724
 20
6.82232
 30
 0
 40
0.02126
 50
6.48068
 51
153.48242
  0
LINE
  8
Gravur
 62
   255
 39
0.008
  6
CONTINUOUS
 10
0.83335
 20
6.20508
 30
 0
 11
0.93177
 21
6.20508
  0
LINE
  8
Gravur
 62
   255
 39
0.008
  6
CONTINUOUS
 10
0.88256
 20
6.25429
 30
 0
 11
0.88256
 21
6.15587
  0
LINE
  8
Gravur
 62
   255
 39
0.008
  6
CONTINUOUS
 10
1.31406
 20
5.77354
 30
 0
 11
1.09134
 21
5.99626
  0
LINE
  8
Gravur
 62
   255
 39
0.008
  6
CONTINUOUS
 10
1.09134
 20
5.99626
 30
 0
 11
1.09134
 21
5.99626
  0
LINE
  8
Gravur
 62
   255
 39
0.008
  6
CONTINUOUS
 10
1.16776
 20
6.12866
 30
 0
 11
1.16776
 21
6.12866
  0
LINE
  8
Gravur
 62
   255
 39
0.008
  6
CONTINUOUS
 10
1.16776
 20
6.12866
 30
 0
 11
1.47201
 21
6.04713
  0
LINE
  8
Gravur
 62
   255
 39
0.008
  6
CONTINUOUS
 10
1.47201
 20
6.36299
 30
 0
 11
1.16776
 21
6.28146
  0
LINE
  8
Gravur
 62
   255
 39
0.008
  6
CONTINUOUS
 10
1.16776
 20
6.28146
 30
 0
 11
1.16776
 21
6.28146
  0
LINE
  8
Gravur
 62
   255
 39
0.008
  6
CONTINUOUS
 10
1.09134
 20
6.41386
 30
 0
 11
1.09134
 21
6.41386
  0
LINE
  8
Gravur
 62
   255
 39
0.008
  6
CONTINUOUS
 10
1.09134
 20
6.41386
 30
 0
 11
1.31406
 21
6.63657
  0
LINE
  8
Gravur
 62
   255
 39
0.008
  6
CONTINUOUS
 10
1.04047
 20
6.79453
 30
 0
 11
0.95894
 21
6.49028
  0
LINE
  8
Gravur
 62
   255
 39
0.008
  6
CONTINUOUS
 10
0.95894
 20
6.49028
 30
 0
 11
0.95894
 21
6.49028
  0
LINE
  8
Gravur
 62
   255
 39
0.008
  6
CONTINUOUS
 10
0.80614
 20
6.49028
 30
 0
 11
0.80614
 21
6.49028
  0
LINE
  8
Gravur
 62
   255
 39
0.008
  6
CONTINUOUS
 10
0.80614
 20
6.49028
 30
 0
 11
0.72461
 21
6.79453
  0
LINE
  8
Gravur
 62
   255
 39
0.008
  6
CONTINUOUS
 10
0.45102
 20
6.63657
 30
 0
 11
0.67374
 21
6.41386
  0
LINE
  8
Gravur
 62
   255
 39
0.008
  6
CONTINUOUS
 10
0.67374
 20
6.41386
 30
 0
 11
0.67374
 21
6.41386
  0
LINE
  8
Gravur
 62
   255
 39
0.008
  6
CONTINUOUS
 10
0.59732
 20
6.28146
 30
 0
 11
0.59732
 21
6.28146
  0
LINE
  8
Gravur
 62
   255
 39
0.008
  6
CONTINUOUS
 10
0.59732
 20
6.28146
 30
 0
 11
0.29307
 21
6.36299
  0
LINE
  8
Gravur
 62
   255
 39
0.008
  6
CONTINUOUS
 10
0.29307
 20
6.04713
 30
 0
 11
0.59732
 21
6.12866
  0
LINE
  8
Gravur
 62
   255
 39
0.008
  6
CONTINUOUS
 10
0.59732
 20
6.12866
 30
 0
 11
0.59732
 21
6.12866
  0
LINE
  8
Gravur
 62
   255
 39
0.008
  6
CONTINUOUS
 10
0.67374
 20
5.99626
 30
 0
 11
0.67374
 21
5.99626
  0
LINE
  8
Gravur
 62
   255
 39
0.008
  6
CONTINUOUS
 10
0.67374
 20
5.99626
 30
 0
 11
0.45102
 21
5.77354
  0
LINE
  8
Gravur
 62
   255
 39
0.016
  6
CONTINUOUS
 10
0.83331
 20
6.20177
 30
 0
 11
0.93173
 21
6.20177
  0
LINE
  8
Gravur
 62
   255
 39
0.016
  6
CONTINUOUS
 10
0.88252
 20
6.25098
 30
 0
 11
0.88252
 21
6.15256
  0
LINE
  8
Gravur
 62
   255
 39
0.016
  6
CONTINUOUS
 10
0.56756
 20
5.65626
 30
 0
 11
0.73484
 21
5.94602
  0
LINE
  8
Gravur
 62
   255
 39
0.016
  6
CONTINUOUS
 10
0.73484
 20
5.94602
 30
 0
 11
0.73488
 21
5.94602
  0
LINE
  8
Gravur
 62
   255
 39
0.016
  6
CONTINUOUS
 10
1.19748
 20
5.65626
 30
 0
 11
1.03016
 21
5.94602
  0
LINE
  8
Gravur
 62
   255
 39
0.016
  6
CONTINUOUS
 10
1.03016
 20
5.94602
 30
 0
 11
1.03016
 21
5.94602
  0
LINE
  8
Gravur
 62
   255
 39
0.016
  6
CONTINUOUS
 10
1.13823
 20
6.05409
 30
 0
 11
1.13823
 21
6.05409
  0
LINE
  8
Gravur
 62
   255
 39
0.016
  6
CONTINUOUS
 10
1.13823
 20
6.05409
 30
 0
 11
1.42803
 21
5.88677
  0
LINE
  8
Gravur
 62
   255
 39
0.016
  6
CONTINUOUS
 10
1.51244
 20
6.20177
 30
 0
 11
1.17780
 21
6.20177
  0
LINE
  8
Gravur
 62
   255
 39
0.016
  6
CONTINUOUS
 10
1.17780
 20
6.20177
 30
 0
 11
1.17780
 21
6.20177
  0
LINE
  8
Gravur
 62
   255
 39
0.016
  6
CONTINUOUS
 10
1.13823
 20
6.34941
 30
 0
 11
1.13823
 21
6.34941
  0
LINE
  8
Gravur
 62
   255
 39
0.016
  6
CONTINUOUS
 10
1.13823
 20
6.34941
 30
 0
 11
1.42803
 21
6.51673
  0
LINE
  8
Gravur
 62
   255
 39
0.016
  6
CONTINUOUS
 10
1.19744
 20
6.74728
 30
 0
 11
1.03016
 21
6.45748
  0
LINE
  8
Gravur
 62
   255
 39
0.016
  6
CONTINUOUS
 10
1.03016
 20
6.45748
 30
 0
 11
1.03012
 21
6.45748
  0
LINE
  8
Gravur
 62
   255
 39
0.016
  6
CONTINUOUS
 10
0.88252
 20
6.49705
 30
 0
 11
0.88252
 21
6.49705
  0
LINE
  8
Gravur
 62
   255
 39
0.016
  6
CONTINUOUS
 10
0.88252
 20
6.49705
 30
 0
 11
0.88252
 21
6.83169
  0
LINE
  8
Gravur
 62
   255
 39
0.016
  6
CONTINUOUS
 10
0.56756
 20
6.74728
 30
 0
 11
0.73488
 21
6.45748
  0
LINE
  8
Gravur
 62
   255
 39
0.016
  6
CONTINUOUS
 10
0.73488
 20
6.45748
 30
 0
 11
0.73488
 21
6.45748
  0
LINE
  8
Gravur
 62
   255
 39
0.016
  6
CONTINUOUS
 10
0.62677
 20
6.34941
 30
 0
 11
0.62677
 21
6.34941
  0
LINE
  8
Gravur
 62
   255
 39
0.016
  6
CONTINUOUS
 10
0.62677
 20
6.34941
 30
 0
 11
0.33701
 21
6.51669
  0
LINE
  8
Gravur
 62
   255
 39
0.016
  6
CONTINUOUS
 10
0.25260
 20
6.20177
 30
 0
 11
0.58724
 21
6.20177
  0
LINE
  8
Gravur
 62
   255
 39
0.016
  6
CONTINUOUS
 10
0.58724
 20
6.20177
 30
 0
 11
0.58724
 21
6.20177
  0
LINE
  8
Gravur
 62
   255
 39
0.016
  6
CONTINUOUS
 10
0.62677
 20
6.05413
 30
 0
 11
0.62677
 21
6.05413
  0
LINE
  8
Gravur
 62
   255
 39
0.016
  6
CONTINUOUS
 10
0.62677
 20
6.05413
 30
 0
 11
0.33701
 21
5.88681
  0
LINE
  8
Gravur
 62
   255
 39
0.008
  6
CONTINUOUS
 10
0.83335
 20
7.83000
 30
 0
 11
0.93177
 21
7.83000
  0
LINE
  8
Gravur
 62
   255
 39
0.008
  6
CONTINUOUS
 10
0.88256
 20
7.87921
 30
 0
 11
0.88256
 21
7.78079
  0
LINE
  8
Gravur
 62
   255
 39
0.008
  6
CONTINUOUS
 10
1.31406
 20
7.39846
 30
 0
 11
1.09134
 21
7.62118
  0
LINE
  8
Gravur
 62
   255
 39
0.008
  6
CONTINUOUS
 10
1.09134
 20
7.62118
 30
 0
 11
1.09134
 21
7.62118
  0
LINE
  8
Gravur
 62
   255
 39
0.008
  6
CONTINUOUS
 10
1.16776
 20
7.75358
 30
 0
 11
1.16776
 21
7.75358
  0
LINE
  8
Gravur
 62
   255
 39
0.008
  6
CONTINUOUS
 10
1.16776
 20
7.75358
 30
 0
 11
1.47201
 21
7.67205
  0
LINE
  8
Gravur
 62
   255
 39
0.008
  6
CONTINUOUS
 10
1.47201
 20
7.98791
 30
 0
 11
1.16776
 21
7.90638
  0
LINE
  8
Gravur
 62
   255
 39
0.008
  6
CONTINUOUS
 10
1.16776
 20
7.90638
 30
 0
 11
1.16776
 21
7.90638
  0
LINE
  8
Gravur
 62
   255
 39
0.008
  6
CONTINUOUS
 10
1.09134
 20
8.03878
 30
 0
 11
1.09134
 21
8.03878
  0
LINE
  8
Gravur
 62
   255
 39
0.008
  6
CONTINUOUS
 10
1.09134
 20
8.03878
 30
 0
 11
1.31406
 21
8.26150
  0
LINE
  8
Gravur
 62
   255
 39
0.008
  6
CONTINUOUS
 10
1.04047
 20
8.41945
 30
 0
 11
0.95894
 21
8.11520
  0
LINE
  8
Gravur
 62
   255
 39
0.008
  6
CONTINUOUS
 10
0.95894
 20
8.11520
 30
 0
 11
0.95894
 21
8.11520
  0
LINE
  8
Gravur
 62
   255
 39
0.008
  6
CONTINUOUS
 10
0.80614
 20
8.11520
 30
 0
 11
0.80614
 21
8.11520
  0
LINE
  8
Gravur
 62
   255
 39
0.008
  6
CONTINUOUS
 10
0.80614
 20
8.11520
 30
 0
 11
0.72461
 21
8.41945
  0
LINE
  8
Gravur
 62
   255
 39
0.008
  6
CONTINUOUS
 10
0.45102
 20
8.26150
 30
 0
 11
0.67374
 21
8.03878
  0
LINE
  8
Gravur
 62
   255
 39
0.008
  6
CONTINUOUS
 10
0.67374
 20
8.03878
 30
 0
 11
0.67374
 21
8.03878
  0
LINE
  8
Gravur
 62
   255
 39
0.008
  6
CONTINUOUS
 10
0.59732
 20
7.90638
 30
 0
 11
0.59732
 21
7.90638
  0
LINE
  8
Gravur
 62
   255
 39
0.008
  6
CONTINUOUS
 10
0.59732
 20
7.90638
 30
 0
 11
0.29307
 21
7.98791
  0
LINE
  8
Gravur
 62
   255
 39
0.008
  6
CONTINUOUS
 10
0.29307
 20
7.67205
 30
 0
 11
0.59732
 21
7.75358
  0
LINE
  8
Gravur
 62
   255
 39
0.008
  6
CONTINUOUS
 10
0.59732
 20
7.75358
 30
 0
 11
0.59732
 21
7.75358
  0
LINE
  8
Gravur
 62
   255
 39
0.008
  6
CONTINUOUS
 10
0.67374
 20
7.62118
 30
 0
 11
0.67374
 21
7.62118
  0
LINE
  8
Gravur
 62
   255
 39
0.008
  6
CONTINUOUS
 10
0.67374
 20
7.62118
 30
 0
 11
0.45102
 21
7.39846
  0
LINE
  8
Gravur
 62
   255
 39
0.016
  6
CONTINUOUS
 10
0.83331
 20
7.82677
 30
 0
 11
0.93173
 21
7.82677
  0
LINE
  8
Gravur
 62
   255
 39
0.016
  6
CONTINUOUS
 10
0.88252
 20
7.87598
 30
 0
 11
0.88252
 21
7.77756
  0
LINE
  8
Gravur
 62
   255
 39
0.016
  6
CONTINUOUS
 10
0.56756
 20
7.28126
 30
 0
 11
0.73484
 21
7.57102
  0
LINE
  8
Gravur
 62
   255
 39
0.016
  6
CONTINUOUS
 10
0.73484
 20
7.57102
 30
 0
 11
0.73488
 21
7.57102
  0
LINE
  8
Gravur
 62
   255
 39
0.016
  6
CONTINUOUS
 10
1.19748
 20
7.28126
 30
 0
 11
1.03016
 21
7.57102
  0
LINE
  8
Gravur
 62
   255
 39
0.016
  6
CONTINUOUS
 10
1.03016
 20
7.57102
 30
 0
 11
1.03016
 21
7.57102
  0
LINE
  8
Gravur
 62
   255
 39
0.016
  6
CONTINUOUS
 10
1.13823
 20
7.67909
 30
 0
 11
1.13823
 21
7.67909
  0
LINE
  8
Gravur
 62
   255
 39
0.016
  6
CONTINUOUS
 10
1.13823
 20
7.67909
 30
 0
 11
1.42803
 21
7.51177
  0
LINE
  8
Gravur
 62
   255
 39
0.016
  6
CONTINUOUS
 10
1.51244
 20
7.82677
 30
 0
 11
1.17780
 21
7.82677
  0
LINE
  8
Gravur
 62
   255
 39
0.016
  6
CONTINUOUS
 10
1.17780
 20
7.82677
 30
 0
 11
1.17780
 21
7.82677
  0
LINE
  8
Gravur
 62
   255
 39
0.016
  6
CONTINUOUS
 10
1.13823
 20
7.97441
 30
 0
 11
1.13823
 21
7.97441
  0
LINE
  8
Gravur
 62
   255
 39
0.016
  6
CONTINUOUS
 10
1.13823
 20
7.97441
 30
 0
 11
1.42803
 21
8.14173
  0
LINE
  8
Gravur
 62
   255
 39
0.016
  6
CONTINUOUS
 10
1.19744
 20
8.37228
 30
 0
 11
1.03016
 21
8.08248
  0
LINE
  8
Gravur
 62
   255
 39
0.016
  6
CONTINUOUS
 10
1.03016
 20
8.08248
 30
 0
 11
1.03012
 21
8.08248
  0
LINE
  8
Gravur
 62
   255
 39
0.016
  6
CONTINUOUS
 10
0.88252
 20
8.12205
 30
 0
 11
0.88252
 21
8.12205
  0
LINE
  8
Gravur
 62
   255
 39
0.016
  6
CONTINUOUS
 10
0.88252
 20
8.12205
 30
 0
 11
0.88252
 21
8.45669
  0
LINE
  8
Gravur
 62
   255
 39
0.016
  6
CONTINUOUS
 10
0.56756
 20
8.37228
 30
 0
 11
0.73488
 21
8.08248
  0
LINE
  8
Gravur
 62
   255
 39
0.016
  6
CONTINUOUS
 10
0.73488
 20
8.08248
 30
 0
 11
0.73488
 21
8.08248
  0
LINE
  8
Gravur
 62
   255
 39
0.016
  6
CONTINUOUS
 10
0.62677
 20
7.97441
 30
 0
 11
0.62677
 21
7.97441
  0
LINE
  8
Gravur
 62
   255
 39
0.016
  6
CONTINUOUS
 10
0.62677
 20
7.97441
 30
 0
 11
0.33701
 21
8.14169
  0
LINE
  8
Gravur
 62
   255
 39
0.016
  6
CONTINUOUS
 10
0.25260
 20
7.82677
 30
 0
 11
0.58724
 21
7.82677
  0
LINE
  8
Gravur
 62
   255
 39
0.016
  6
CONTINUOUS
 10
0.58724
 20
7.82677
 30
 0
 11
0.58724
 21
7.82677
  0
LINE
  8
Gravur
 62
   255
 39
0.016
  6
CONTINUOUS
 10
0.62677
 20
7.67913
 30
 0
 11
0.62677
 21
7.67913
  0
LINE
  8
Gravur
 62
   255
 39
0.016
  6
CONTINUOUS
 10
0.62677
 20
7.67913
 30
 0
 11
0.33701
 21
7.51181
  0
LINE
  8
Gravur
 62
   255
 39
0.016
  6
CONTINUOUS
 10
2.55276
 20
5.33520
 30
 0
 11
2.55240
 21
5.33866
  0
LINE
  8
Gravur
 62
   255
 39
0.016
  6
CONTINUOUS
 10
2.55240
 20
5.33866
 30
 0
 11
2.55161
 21
5.34201
  0
LINE
  8
Gravur
 62
   255
 39
0.016
  6
CONTINUOUS
 10
2.55161
 20
5.34201
 30
 0
 11
2.55035
 21
5.34520
  0
LINE
  8
Gravur
 62
   255
 39
0.016
  6
CONTINUOUS
 10
2.55035
 20
5.34520
 30
 0
 11
2.54874
 21
5.34815
  0
LINE
  8
Gravur
 62
   255
 39
0.016
  6
CONTINUOUS
 10
2.54874
 20
5.34815
 30
 0
 11
2.54673
 21
5.35083
  0
LINE
  8
Gravur
 62
   255
 39
0.016
  6
CONTINUOUS
 10
2.54673
 20
5.35083
 30
 0
 11
2.54441
 21
5.35315
  0
LINE
  8
Gravur
 62
   255
 39
0.016
  6
CONTINUOUS
 10
2.54441
 20
5.35315
 30
 0
 11
2.54177
 21
5.35504
  0
LINE
  8
Gravur
 62
   255
 39
0.016
  6
CONTINUOUS
 10
2.54177
 20
5.35504
 30
 0
 11
2.53894
 21
5.35654
  0
LINE
  8
Gravur
 62
   255
 39
0.016
  6
CONTINUOUS
 10
2.53894
 20
5.35654
 30
 0
 11
2.53594
 21
5.35752
  0
LINE
  8
Gravur
 62
   255
 39
0.016
  6
CONTINUOUS
 10
2.53594
 20
5.35752
 30
 0
 11
2.53287
 21
5.35803
  0
LINE
  8
Gravur
 62
   255
 39
0.016
  6
CONTINUOUS
 10
2.53287
 20
5.35803
 30
 0
 11
2.52972
 21
5.35803
  0
LINE
  8
Gravur
 62
   255
 39
0.016
  6
CONTINUOUS
 10
2.52972
 20
5.35803
 30
 0
 11
2.52661
 21
5.35752
  0
LINE
  8
Gravur
 62
   255
 39
0.016
  6
CONTINUOUS
 10
2.52661
 20
5.35752
 30
 0
 11
2.52366
 21
5.35654
  0
LINE
  8
Gravur
 62
   255
 39
0.016
  6
CONTINUOUS
 10
2.52366
 20
5.35654
 30
 0
 11
2.52083
 21
5.35504
  0
LINE
  8
Gravur
 62
   255
 39
0.016
  6
CONTINUOUS
 10
2.52083
 20
5.35504
 30
 0
 11
2.51819
 21
5.35315
  0
LINE
  8
Gravur
 62
   255
 39
0.016
  6
CONTINUOUS
 10
2.51819
 20
5.35315
 30
 0
 11
2.51587
 21
5.35083
  0
LINE
  8
Gravur
 62
   255
 39
0.016
  6
CONTINUOUS
 10
2.51587
 20
5.35083
 30
 0
 11
2.51386
 21
5.34815
  0
LINE
  8
Gravur
 62
   255
 39
0.016
  6
CONTINUOUS
 10
2.51386
 20
5.34815
 30
 0
 11
2.51224
 21
5.34520
  0
LINE
  8
Gravur
 62
   255
 39
0.016
  6
CONTINUOUS
 10
2.51224
 20
5.34520
 30
 0
 11
2.51098
 21
5.34201
  0
LINE
  8
Gravur
 62
   255
 39
0.016
  6
CONTINUOUS
 10
2.51098
 20
5.34201
 30
 0
 11
2.51020
 21
5.33866
  0
LINE
  8
Gravur
 62
   255
 39
0.016
  6
CONTINUOUS
 10
2.51020
 20
5.33866
 30
 0
 11
2.50984
 21
5.33520
  0
LINE
  8
Gravur
 62
   255
 39
0.016
  6
CONTINUOUS
 10
2.50984
 20
5.33520
 30
 0
 11
2.50980
 21
5.33520
  0
LINE
  8
Gravur
 62
   255
 39
0.016
  6
CONTINUOUS
 10
2.50980
 20
5.33520
 30
 0
 11
2.50980
 21
5.27276
  0
LINE
  8
Gravur
 62
   255
 39
0.016
  6
CONTINUOUS
 10
2.50980
 20
5.27276
 30
 0
 11
2.51016
 21
5.26929
  0
LINE
  8
Gravur
 62
   255
 39
0.016
  6
CONTINUOUS
 10
2.51016
 20
5.26929
 30
 0
 11
2.51094
 21
5.26594
  0
LINE
  8
Gravur
 62
   255
 39
0.016
  6
CONTINUOUS
 10
2.51094
 20
5.26594
 30
 0
 11
2.51220
 21
5.26272
  0
LINE
  8
Gravur
 62
   255
 39
0.016
  6
CONTINUOUS
 10
2.51220
 20
5.26272
 30
 0
 11
2.51382
 21
5.25976
  0
LINE
  8
Gravur
 62
   255
 39
0.016
  6
CONTINUOUS
 10
2.51382
 20
5.25976
 30
 0
 11
2.51587
 21
5.25709
  0
LINE
  8
Gravur
 62
   255
 39
0.016
  6
CONTINUOUS
 10
2.51587
 20
5.25709
 30
 0
 11
2.51819
 21
5.25476
  0
LINE
  8
Gravur
 62
   255
 39
0.016
  6
CONTINUOUS
 10
2.51819
 20
5.25476
 30
 0
 11
2.52079
 21
5.25287
  0
LINE
  8
Gravur
 62
   255
 39
0.016
  6
CONTINUOUS
 10
2.52079
 20
5.25287
 30
 0
 11
2.52366
 21
5.25138
  0
LINE
  8
Gravur
 62
   255
 39
0.016
  6
CONTINUOUS
 10
2.52366
 20
5.25138
 30
 0
 11
2.52661
 21
5.25039
  0
LINE
  8
Gravur
 62
   255
 39
0.016
  6
CONTINUOUS
 10
2.52661
 20
5.25039
 30
 0
 11
2.52972
 21
5.24988
  0
LINE
  8
Gravur
 62
   255
 39
0.016
  6
CONTINUOUS
 10
2.52972
 20
5.24988
 30
 0
 11
2.53287
 21
5.24988
  0
LINE
  8
Gravur
 62
   255
 39
0.016
  6
CONTINUOUS
 10
2.53287
 20
5.24988
 30
 0
 11
2.53598
 21
5.25039
  0
LINE
  8
Gravur
 62
   255
 39
0.016
  6
CONTINUOUS
 10
2.53598
 20
5.25039
 30
 0
 11
2.53894
 21
5.25138
  0
LINE
  8
Gravur
 62
   255
 39
0.016
  6
CONTINUOUS
 10
2.53894
 20
5.25138
 30
 0
 11
2.54177
 21
5.25287
  0
LINE
  8
Gravur
 62
   255
 39
0.016
  6
CONTINUOUS
 10
2.54177
 20
5.25287
 30
 0
 11
2.54441
 21
5.25476
  0
LINE
  8
Gravur
 62
   255
 39
0.016
  6
CONTINUOUS
 10
2.54441
 20
5.25476
 30
 0
 11
2.54673
 21
5.25709
  0
LINE
  8
Gravur
 62
   255
 39
0.016
  6
CONTINUOUS
 10
2.54673
 20
5.25709
 30
 0
 11
2.54878
 21
5.25976
  0
LINE
  8
Gravur
 62
   255
 39
0.016
  6
CONTINUOUS
 10
2.54878
 20
5.25976
 30
 0
 11
2.55039
 21
5.26272
  0
LINE
  8
Gravur
 62
   255
 39
0.016
  6
CONTINUOUS
 10
2.55039
 20
5.26272
 30
 0
 11
2.55165
 21
5.26594
  0
LINE
  8
Gravur
 62
   255
 39
0.016
  6
CONTINUOUS
 10
2.55165
 20
5.26594
 30
 0
 11
2.55244
 21
5.26929
  0
LINE
  8
Gravur
 62
   255
 39
0.016
  6
CONTINUOUS
 10
2.55244
 20
5.26929
 30
 0
 11
2.55280
 21
5.27276
  0
LINE
  8
Gravur
 62
   255
 39
0.016
  6
CONTINUOUS
 10
2.55280
 20
5.27276
 30
 0
 11
2.55276
 21
5.27276
  0
LINE
  8
Gravur
 62
   255
 39
0.016
  6
CONTINUOUS
 10
2.58087
 20
5.35909
 30
 0
 11
2.60319
 21
5.24886
  0
LINE
  8
Gravur
 62
   255
 39
0.016
  6
CONTINUOUS
 10
2.60319
 20
5.24886
 30
 0
 11
2.62551
 21
5.35909
  0
LINE
  8
Gravur
 62
   255
 39
0.016
  6
CONTINUOUS
 10
2.65280
 20
5.33429
 30
 0
 11
2.65276
 21
5.33760
  0
LINE
  8
Gravur
 62
   255
 39
0.016
  6
CONTINUOUS
 10
2.65276
 20
5.33760
 30
 0
 11
2.65311
 21
5.34087
  0
LINE
  8
Gravur
 62
   255
 39
0.016
  6
CONTINUOUS
 10
2.65311
 20
5.34087
 30
 0
 11
2.65394
 21
5.34406
  0
LINE
  8
Gravur
 62
   255
 39
0.016
  6
CONTINUOUS
 10
2.65394
 20
5.34406
 30
 0
 11
2.65516
 21
5.34709
  0
LINE
  8
Gravur
 62
   255
 39
0.016
  6
CONTINUOUS
 10
2.65516
 20
5.34709
 30
 0
 11
2.65673
 21
5.34988
  0
LINE
  8
Gravur
 62
   255
 39
0.016
  6
CONTINUOUS
 10
2.65673
 20
5.34988
 30
 0
 11
2.65870
 21
5.35236
  0
LINE
  8
Gravur
 62
   255
 39
0.016
  6
CONTINUOUS
 10
2.65870
 20
5.35236
 30
 0
 11
2.66091
 21
5.35457
  0
LINE
  8
Gravur
 62
   255
 39
0.016
  6
CONTINUOUS
 10
2.66091
 20
5.35457
 30
 0
 11
2.66343
 21
5.35634
  0
LINE
  8
Gravur
 62
   255
 39
0.016
  6
CONTINUOUS
 10
2.66343
 20
5.35634
 30
 0
 11
2.66614
 21
5.35772
  0
LINE
  8
Gravur
 62
   255
 39
0.016
  6
CONTINUOUS
 10
2.66614
 20
5.35772
 30
 0
 11
2.66898
 21
5.35862
  0
LINE
  8
Gravur
 62
   255
 39
0.016
  6
CONTINUOUS
 10
2.66898
 20
5.35862
 30
 0
 11
2.67193
 21
5.35906
  0
LINE
  8
Gravur
 62
   255
 39
0.016
  6
CONTINUOUS
 10
2.67193
 20
5.35906
 30
 0
 11
2.67264
 21
5.35909
  0
LINE
  8
Gravur
 62
   255
 39
0.016
  6
CONTINUOUS
 10
2.67264
 20
5.35909
 30
 0
 11
2.67583
 21
5.35902
  0
LINE
  8
Gravur
 62
   255
 39
0.016
  6
CONTINUOUS
 10
2.67583
 20
5.35902
 30
 0
 11
2.67898
 21
5.35839
  0
LINE
  8
Gravur
 62
   255
 39
0.016
  6
CONTINUOUS
 10
2.67898
 20
5.35839
 30
 0
 11
2.68205
 21
5.35724
  0
LINE
  8
Gravur
 62
   255
 39
0.016
  6
CONTINUOUS
 10
2.68205
 20
5.35724
 30
 0
 11
2.68488
 21
5.35563
  0
LINE
  8
Gravur
 62
   255
 39
0.016
  6
CONTINUOUS
 10
2.68488
 20
5.35563
 30
 0
 11
2.68748
 21
5.35358
  0
LINE
  8
Gravur
 62
   255
 39
0.016
  6
CONTINUOUS
 10
2.68748
 20
5.35358
 30
 0
 11
2.68980
 21
5.35110
  0
LINE
  8
Gravur
 62
   255
 39
0.016
  6
CONTINUOUS
 10
2.68980
 20
5.35110
 30
 0
 11
2.69173
 21
5.34831
  0
LINE
  8
Gravur
 62
   255
 39
0.016
  6
CONTINUOUS
 10
2.69173
 20
5.34831
 30
 0
 11
2.69327
 21
5.34520
  0
LINE
  8
Gravur
 62
   255
 39
0.016
  6
CONTINUOUS
 10
2.69327
 20
5.34520
 30
 0
 11
2.69441
 21
5.34185
  0
LINE
  8
Gravur
 62
   255
 39
0.016
  6
CONTINUOUS
 10
2.69441
 20
5.34185
 30
 0
 11
2.69508
 21
5.33839
  0
LINE
  8
Gravur
 62
   255
 39
0.016
  6
CONTINUOUS
 10
2.69508
 20
5.33839
 30
 0
 11
2.69528
 21
5.33484
  0
LINE
  8
Gravur
 62
   255
 39
0.016
  6
CONTINUOUS
 10
2.69528
 20
5.33484
 30
 0
 11
2.69500
 21
5.33130
  0
LINE
  8
Gravur
 62
   255
 39
0.016
  6
CONTINUOUS
 10
2.69500
 20
5.33130
 30
 0
 11
2.69425
 21
5.32783
  0
LINE
  8
Gravur
 62
   255
 39
0.016
  6
CONTINUOUS
 10
2.69425
 20
5.32783
 30
 0
 11
2.69307
 21
5.32453
  0
LINE
  8
Gravur
 62
   255
 39
0.016
  6
CONTINUOUS
 10
2.69307
 20
5.32453
 30
 0
 11
2.69248
 21
5.32327
  0
LINE
  8
Gravur
 62
   255
 39
0.016
  6
CONTINUOUS
 10
2.69248
 20
5.32327
 30
 0
 11
2.65280
 21
5.24886
  0
LINE
  8
Gravur
 62
   255
 39
0.016
  6
CONTINUOUS
 10
2.65280
 20
5.24886
 30
 0
 11
2.69496
 21
5.24886
  0
ARC
  8
Gravur
 62
   255
 39
0.008
  6
CONTINUOUS
 10
1.87094
 20
4.60480
 30
 0
 40
0.01949
 50
91.50439
 51
-174.78461
  0
ARC
  8
Gravur
 62
   255
 39
0.008
  6
CONTINUOUS
 10
1.87142
 20
4.60374
 30
 0
 40
0.02059
 50
330.44533
 51
92.74196
  0
LINE
  8
Gravur
 62
   255
 39
0.008
  6
CONTINUOUS
 10
1.88933
 20
4.59358
 30
 0
 11
1.85154
 21
4.52980
  0
LINE
  8
Gravur
 62
   255
 39
0.008
  6
CONTINUOUS
 10
1.85154
 20
4.52980
 30
 0
 11
1.89169
 21
4.52980
  0
ARC
  8
Gravur
 62
   255
 39
0.008
  6
CONTINUOUS
 10
1.96728
 20
4.96902
 30
 0
 40
0.01937
 50
434.80614
 51
175.92268
  0
ARC
  8
Gravur
 62
   255
 39
0.008
  6
CONTINUOUS
 10
1.96689
 20
4.96752
 30
 0
 40
0.02091
 50
263.39742
 51
74.83943
  0
ARC
  8
Gravur
 62
   255
 39
0.008
  6
CONTINUOUS
 10
1.96768
 20
4.92118
 30
 0
 40
0.02579
 50
285.86128
 51
97.10332
  0
ARC
  8
Gravur
 62
   255
 39
0.008
  6
CONTINUOUS
 10
1.96823
 20
4.91819
 30
 0
 40
0.02276
 50
185.36509
 51
-73.41468
  0
LINE
  8
Gravur
 62
   255
 39
0.008
  6
CONTINUOUS
 10
2.24736
 20
5.25650
 30
 0
 11
2.21665
 21
5.18563
  0
LINE
  8
Gravur
 62
   255
 39
0.008
  6
CONTINUOUS
 10
2.21665
 20
5.18563
 30
 0
 11
2.25681
 21
5.18563
  0
LINE
  8
Gravur
 62
   255
 39
0.008
  6
CONTINUOUS
 10
2.24736
 20
5.20925
 30
 0
 11
2.24736
 21
5.16201
  0
LINE
  8
Gravur
 62
   255
 39
0.008
  6
CONTINUOUS
 10
1.95890
 20
4.23567
 30
 0
 11
1.98016
 21
4.25929
  0
LINE
  8
Gravur
 62
   255
 39
0.008
  6
CONTINUOUS
 10
1.98016
 20
4.25929
 30
 0
 11
1.98016
 21
4.16480
  0
ARC
  8
Gravur
 62
   255
 39
0.008
  6
CONTINUOUS
 10
2.23673
 20
3.91886
 30
 0
 40
0.02126
 50
180.00000
 51
360.00000
  0
LINE
  8
Gravur
 62
   255
 39
0.008
  6
CONTINUOUS
 10
2.25799
 20
3.91886
 30
 0
 11
2.25799
 21
3.97083
  0
ARC
  8
Gravur
 62
   255
 39
0.008
  6
CONTINUOUS
 10
2.23673
 20
3.97083
 30
 0
 40
0.02126
 50
0.00000
 51
180.00000
  0
LINE
  8
Gravur
 62
   255
 39
0.008
  6
CONTINUOUS
 10
2.21547
 20
3.97083
 30
 0
 11
2.21547
 21
3.91886
  0
LINE
  8
Gravur
 62
   255
 39
0.008
  6
CONTINUOUS
 10
2.92146
 20
3.96846
 30
 0
 11
2.94272
 21
3.99209
  0
LINE
  8
Gravur
 62
   255
 39
0.008
  6
CONTINUOUS
 10
2.94272
 20
3.99209
 30
 0
 11
2.94272
 21
3.89760
  0
ARC
  8
Gravur
 62
   255
 39
0.008
  6
CONTINUOUS
 10
2.99075
 20
3.91886
 30
 0
 40
0.02126
 50
180.00000
 51
360.00000
  0
LINE
  8
Gravur
 62
   255
 39
0.008
  6
CONTINUOUS
 10
3.01201
 20
3.91886
 30
 0
 11
3.01201
 21
3.97083
  0
ARC
  8
Gravur
 62
   255
 39
0.008
  6
CONTINUOUS
 10
2.99075
 20
3.97083
 30
 0
 40
0.02126
 50
0.00000
 51
180.00000
  0
LINE
  8
Gravur
 62
   255
 39
0.008
  6
CONTINUOUS
 10
2.96949
 20
3.97083
 30
 0
 11
2.96949
 21
3.91886
  0
ARC
  8
Gravur
 62
   255
 39
0.008
  6
CONTINUOUS
 10
3.23591
 20
4.18559
 30
 0
 40
0.02087
 50
178.70296
 51
264.59040
  0
ARC
  8
Gravur
 62
   255
 39
0.008
  6
CONTINUOUS
 10
3.23323
 20
4.18441
 30
 0
 40
0.01961
 50
-87.92997
 51
-2.07003
  0
LINE
  8
Gravur
 62
   255
 39
0.008
  6
CONTINUOUS
 10
3.25283
 20
4.18370
 30
 0
 11
3.25283
 21
4.24039
  0
ARC
  8
Gravur
 62
   255
 39
0.008
  6
CONTINUOUS
 10
3.23394
 20
4.24039
 30
 0
 40
0.01890
 50
0.00000
 51
180.00000
  0
LINE
  8
Gravur
 62
   255
 39
0.008
  6
CONTINUOUS
 10
3.21504
 20
4.24039
 30
 0
 11
3.21504
 21
4.22622
  0
ARC
  8
Gravur
 62
   255
 39
0.008
  6
CONTINUOUS
 10
3.23453
 20
4.22846
 30
 0
 40
0.01961
 50
-173.43124
 51
-20.83908
  0
ARC
  8
Gravur
 62
   255
 39
0.008
  6
CONTINUOUS
 10
3.33185
 20
4.55016
 30
 0
 40
0.02035
 50
-90.33247
 51
0.33247
  0
LINE
  8
Gravur
 62
   255
 39
0.008
  6
CONTINUOUS
 10
3.35220
 20
4.55028
 30
 0
 11
3.35220
 21
4.55736
  0
ARC
  8
Gravur
 62
   255
 39
0.008
  6
CONTINUOUS
 10
3.33224
 20
4.55709
 30
 0
 40
0.01996
 50
0.79102
 51
91.46880
  0
ARC
  8
Gravur
 62
   255
 39
0.008
  6
CONTINUOUS
 10
3.33185
 20
4.59583
 30
 0
 40
0.01878
 50
-90.36035
 51
0.36035
  0
LINE
  8
Gravur
 62
   255
 39
0.008
  6
CONTINUOUS
 10
3.35063
 20
4.59594
 30
 0
 11
3.35063
 21
4.60539
  0
ARC
  8
Gravur
 62
   255
 39
0.008
  6
CONTINUOUS
 10
3.33173
 20
4.60539
 30
 0
 40
0.01890
 50
0.00000
 51
180.00000
  0
LINE
  8
Gravur
 62
   255
 39
0.008
  6
CONTINUOUS
 10
3.31283
 20
4.60539
 30
 0
 11
3.31283
 21
4.59594
  0
ARC
  8
Gravur
 62
   255
 39
0.008
  6
CONTINUOUS
 10
3.33161
 20
4.59583
 30
 0
 40
0.01878
 50
179.63965
 51
270.36035
  0
ARC
  8
Gravur
 62
   255
 39
0.008
  6
CONTINUOUS
 10
3.33122
 20
4.55709
 30
 0
 40
0.01996
 50
88.53120
 51
179.20898
  0
LINE
  8
Gravur
 62
   255
 39
0.008
  6
CONTINUOUS
 10
3.31126
 20
4.55736
 30
 0
 11
3.31126
 21
4.55028
  0
ARC
  8
Gravur
 62
   255
 39
0.008
  6
CONTINUOUS
 10
3.33161
 20
4.55016
 30
 0
 40
0.02035
 50
179.66753
 51
270.33247
  0
LINE
  8
Gravur
 62
   255
 39
0.008
  6
CONTINUOUS
 10
3.21386
 20
4.97276
 30
 0
 11
3.21386
 21
4.98929
  0
LINE
  8
Gravur
 62
   255
 39
0.008
  6
CONTINUOUS
 10
3.21386
 20
4.98929
 30
 0
 11
3.25402
 21
4.98929
  0
LINE
  8
Gravur
 62
   255
 39
0.008
  6
CONTINUOUS
 10
3.25402
 20
4.98929
 30
 0
 11
3.22331
 21
4.89480
  0
ARC
  8
Gravur
 62
   255
 39
0.008
  6
CONTINUOUS
 10
2.96598
 20
5.23571
 30
 0
 40
0.02087
 50
-1.29704
 51
84.59040
  0
ARC
  8
Gravur
 62
   255
 39
0.008
  6
CONTINUOUS
 10
2.96618
 20
5.23709
 30
 0
 40
0.01949
 50
84.78461
 51
178.49561
  0
LINE
  8
Gravur
 62
   255
 39
0.008
  6
CONTINUOUS
 10
2.94669
 20
5.23760
 30
 0
 11
2.94669
 21
5.18091
  0
ARC
  8
Gravur
 62
   255
 39
0.008
  6
CONTINUOUS
 10
2.96780
 20
5.18311
 30
 0
 40
0.02122
 50
-174.03551
 51
-95.96449
  0
ARC
  8
Gravur
 62
   255
 39
0.008
  6
CONTINUOUS
 10
2.96606
 20
5.18287
 30
 0
 40
0.02087
 50
-91.29704
 51
-5.40960
  0
LINE
  8
Gravur
 62
   255
 39
0.008
  6
CONTINUOUS
 10
2.98685
 20
5.18091
 30
 0
 11
2.98685
 21
5.19980
  0
ARC
  8
Gravur
 62
   255
 39
0.008
  6
CONTINUOUS
 10
2.96571
 20
5.19740
 30
 0
 40
0.02126
 50
6.48068
 51
153.48242
  0
LINE
  8
Gravur
 62
   255
 39
0.016
  6
CONTINUOUS
 10
2.55331
 20
4.57677
 30
 0
 11
2.65173
 21
4.57677
  0
LINE
  8
Gravur
 62
   255
 39
0.016
  6
CONTINUOUS
 10
2.60252
 20
4.62598
 30
 0
 11
2.60252
 21
4.52756
  0
LINE
  8
Gravur
 62
   255
 39
0.016
  6
CONTINUOUS
 10
2.28756
 20
4.03126
 30
 0
 11
2.45484
 21
4.32102
  0
LINE
  8
Gravur
 62
   255
 39
0.016
  6
CONTINUOUS
 10
2.45484
 20
4.32102
 30
 0
 11
2.45488
 21
4.32102
  0
LINE
  8
Gravur
 62
   255
 39
0.016
  6
CONTINUOUS
 10
2.91748
 20
4.03126
 30
 0
 11
2.75016
 21
4.32102
  0
LINE
  8
Gravur
 62
   255
 39
0.016
  6
CONTINUOUS
 10
2.75016
 20
4.32102
 30
 0
 11
2.75016
 21
4.32102
  0
LINE
  8
Gravur
 62
   255
 39
0.016
  6
CONTINUOUS
 10
2.85823
 20
4.42909
 30
 0
 11
2.85823
 21
4.42909
  0
LINE
  8
Gravur
 62
   255
 39
0.016
  6
CONTINUOUS
 10
2.85823
 20
4.42909
 30
 0
 11
3.14803
 21
4.26177
  0
LINE
  8
Gravur
 62
   255
 39
0.016
  6
CONTINUOUS
 10
3.23244
 20
4.57677
 30
 0
 11
2.89780
 21
4.57677
  0
LINE
  8
Gravur
 62
   255
 39
0.016
  6
CONTINUOUS
 10
2.89780
 20
4.57677
 30
 0
 11
2.89780
 21
4.57677
  0
LINE
  8
Gravur
 62
   255
 39
0.016
  6
CONTINUOUS
 10
2.85823
 20
4.72441
 30
 0
 11
2.85823
 21
4.72441
  0
LINE
  8
Gravur
 62
   255
 39
0.016
  6
CONTINUOUS
 10
2.85823
 20
4.72441
 30
 0
 11
3.14803
 21
4.89173
  0
LINE
  8
Gravur
 62
   255
 39
0.016
  6
CONTINUOUS
 10
2.91744
 20
5.12228
 30
 0
 11
2.75016
 21
4.83248
  0
LINE
  8
Gravur
 62
   255
 39
0.016
  6
CONTINUOUS
 10
2.75016
 20
4.83248
 30
 0
 11
2.75012
 21
4.83248
  0
LINE
  8
Gravur
 62
   255
 39
0.016
  6
CONTINUOUS
 10
2.60252
 20
4.87205
 30
 0
 11
2.60252
 21
4.87205
  0
LINE
  8
Gravur
 62
   255
 39
0.016
  6
CONTINUOUS
 10
2.60252
 20
4.87205
 30
 0
 11
2.60252
 21
5.20669
  0
LINE
  8
Gravur
 62
   255
 39
0.016
  6
CONTINUOUS
 10
2.28756
 20
5.12228
 30
 0
 11
2.45488
 21
4.83248
  0
LINE
  8
Gravur
 62
   255
 39
0.016
  6
CONTINUOUS
 10
2.45488
 20
4.83248
 30
 0
 11
2.45488
 21
4.83248
  0
LINE
  8
Gravur
 62
   255
 39
0.016
  6
CONTINUOUS
 10
2.34677
 20
4.72441
 30
 0
 11
2.34677
 21
4.72441
  0
LINE
  8
Gravur
 62
   255
 39
0.016
  6
CONTINUOUS
 10
2.34677
 20
4.72441
 30
 0
 11
2.05701
 21
4.89169
  0
LINE
  8
Gravur
 62
   255
 39
0.016
  6
CONTINUOUS
 10
1.97260
 20
4.57677
 30
 0
 11
2.30724
 21
4.57677
  0
LINE
  8
Gravur
 62
   255
 39
0.016
  6
CONTINUOUS
 10
2.30724
 20
4.57677
 30
 0
 11
2.30724
 21
4.57677
  0
LINE
  8
Gravur
 62
   255
 39
0.016
  6
CONTINUOUS
 10
2.34677
 20
4.42913
 30
 0
 11
2.34677
 21
4.42913
  0
LINE
  8
Gravur
 62
   255
 39
0.016
  6
CONTINUOUS
 10
2.34677
 20
4.42913
 30
 0
 11
2.05701
 21
4.26181
  0
LINE
  8
Gravur
 62
   255
 39
0.008
  6
CONTINUOUS
 10
2.55335
 20
4.58004
 30
 0
 11
2.65177
 21
4.58004
  0
LINE
  8
Gravur
 62
   255
 39
0.008
  6
CONTINUOUS
 10
2.60256
 20
4.62925
 30
 0
 11
2.60256
 21
4.53083
  0
LINE
  8
Gravur
 62
   255
 39
0.008
  6
CONTINUOUS
 10
3.03406
 20
4.14850
 30
 0
 11
2.81134
 21
4.37122
  0
LINE
  8
Gravur
 62
   255
 39
0.008
  6
CONTINUOUS
 10
2.81134
 20
4.37122
 30
 0
 11
2.81134
 21
4.37122
  0
LINE
  8
Gravur
 62
   255
 39
0.008
  6
CONTINUOUS
 10
2.88776
 20
4.50362
 30
 0
 11
2.88776
 21
4.50362
  0
LINE
  8
Gravur
 62
   255
 39
0.008
  6
CONTINUOUS
 10
2.88776
 20
4.50362
 30
 0
 11
3.19201
 21
4.42209
  0
LINE
  8
Gravur
 62
   255
 39
0.008
  6
CONTINUOUS
 10
3.19201
 20
4.73795
 30
 0
 11
2.88776
 21
4.65642
  0
LINE
  8
Gravur
 62
   255
 39
0.008
  6
CONTINUOUS
 10
2.88776
 20
4.65642
 30
 0
 11
2.88776
 21
4.65642
  0
LINE
  8
Gravur
 62
   255
 39
0.008
  6
CONTINUOUS
 10
2.81134
 20
4.78882
 30
 0
 11
2.81134
 21
4.78882
  0
LINE
  8
Gravur
 62
   255
 39
0.008
  6
CONTINUOUS
 10
2.81134
 20
4.78882
 30
 0
 11
3.03406
 21
5.01154
  0
LINE
  8
Gravur
 62
   255
 39
0.008
  6
CONTINUOUS
 10
2.76047
 20
5.16949
 30
 0
 11
2.67894
 21
4.86524
  0
LINE
  8
Gravur
 62
   255
 39
0.008
  6
CONTINUOUS
 10
2.67894
 20
4.86524
 30
 0
 11
2.67894
 21
4.86524
  0
LINE
  8
Gravur
 62
   255
 39
0.008
  6
CONTINUOUS
 10
2.52614
 20
4.86524
 30
 0
 11
2.52614
 21
4.86524
  0
LINE
  8
Gravur
 62
   255
 39
0.008
  6
CONTINUOUS
 10
2.52614
 20
4.86524
 30
 0
 11
2.44461
 21
5.16949
  0
LINE
  8
Gravur
 62
   255
 39
0.008
  6
CONTINUOUS
 10
2.17102
 20
5.01154
 30
 0
 11
2.39374
 21
4.78882
  0
LINE
  8
Gravur
 62
   255
 39
0.008
  6
CONTINUOUS
 10
2.39374
 20
4.78882
 30
 0
 11
2.39374
 21
4.78882
  0
LINE
  8
Gravur
 62
   255
 39
0.008
  6
CONTINUOUS
 10
2.31732
 20
4.65642
 30
 0
 11
2.31732
 21
4.65642
  0
LINE
  8
Gravur
 62
   255
 39
0.008
  6
CONTINUOUS
 10
2.31732
 20
4.65642
 30
 0
 11
2.01307
 21
4.73795
  0
LINE
  8
Gravur
 62
   255
 39
0.008
  6
CONTINUOUS
 10
2.01307
 20
4.42209
 30
 0
 11
2.31732
 21
4.50362
  0
LINE
  8
Gravur
 62
   255
 39
0.008
  6
CONTINUOUS
 10
2.31732
 20
4.50362
 30
 0
 11
2.31732
 21
4.50362
  0
LINE
  8
Gravur
 62
   255
 39
0.008
  6
CONTINUOUS
 10
2.39374
 20
4.37122
 30
 0
 11
2.39374
 21
4.37122
  0
LINE
  8
Gravur
 62
   255
 39
0.008
  6
CONTINUOUS
 10
2.39374
 20
4.37122
 30
 0
 11
2.17102
 21
4.14850
  0
LINE
  8
Gravur
 62
   255
 39
0.016
  6
CONTINUOUS
 10
2.38717
 20
8.49886
 30
 0
 11
2.38717
 21
8.60909
  0
LINE
  8
Gravur
 62
   255
 39
0.016
  6
CONTINUOUS
 10
2.38717
 20
8.60909
 30
 0
 11
2.40949
 21
8.60909
  0
LINE
  8
Gravur
 62
   255
 39
0.016
  6
CONTINUOUS
 10
2.40949
 20
8.60909
 30
 0
 11
2.41315
 21
8.60878
  0
LINE
  8
Gravur
 62
   255
 39
0.016
  6
CONTINUOUS
 10
2.41315
 20
8.60878
 30
 0
 11
2.41677
 21
8.60787
  0
LINE
  8
Gravur
 62
   255
 39
0.016
  6
CONTINUOUS
 10
2.41677
 20
8.60787
 30
 0
 11
2.42024
 21
8.60638
  0
LINE
  8
Gravur
 62
   255
 39
0.016
  6
CONTINUOUS
 10
2.42024
 20
8.60638
 30
 0
 11
2.42343
 21
8.60429
  0
LINE
  8
Gravur
 62
   255
 39
0.016
  6
CONTINUOUS
 10
2.42343
 20
8.60429
 30
 0
 11
2.42634
 21
8.60173
  0
LINE
  8
Gravur
 62
   255
 39
0.016
  6
CONTINUOUS
 10
2.42634
 20
8.60173
 30
 0
 11
2.42886
 21
8.59870
  0
LINE
  8
Gravur
 62
   255
 39
0.016
  6
CONTINUOUS
 10
2.42886
 20
8.59870
 30
 0
 11
2.43094
 21
8.59531
  0
LINE
  8
Gravur
 62
   255
 39
0.016
  6
CONTINUOUS
 10
2.43094
 20
8.59531
 30
 0
 11
2.43260
 21
8.59161
  0
LINE
  8
Gravur
 62
   255
 39
0.016
  6
CONTINUOUS
 10
2.43260
 20
8.59161
 30
 0
 11
2.43366
 21
8.58768
  0
LINE
  8
Gravur
 62
   255
 39
0.016
  6
CONTINUOUS
 10
2.43366
 20
8.58768
 30
 0
 11
2.43421
 21
8.58358
  0
LINE
  8
Gravur
 62
   255
 39
0.016
  6
CONTINUOUS
 10
2.43421
 20
8.58358
 30
 0
 11
2.43421
 21
8.57949
  0
LINE
  8
Gravur
 62
   255
 39
0.016
  6
CONTINUOUS
 10
2.43421
 20
8.57949
 30
 0
 11
2.43366
 21
8.57539
  0
LINE
  8
Gravur
 62
   255
 39
0.016
  6
CONTINUOUS
 10
2.43366
 20
8.57539
 30
 0
 11
2.43260
 21
8.57146
  0
LINE
  8
Gravur
 62
   255
 39
0.016
  6
CONTINUOUS
 10
2.43260
 20
8.57146
 30
 0
 11
2.43094
 21
8.56776
  0
LINE
  8
Gravur
 62
   255
 39
0.016
  6
CONTINUOUS
 10
2.43094
 20
8.56776
 30
 0
 11
2.42886
 21
8.56437
  0
LINE
  8
Gravur
 62
   255
 39
0.016
  6
CONTINUOUS
 10
2.42886
 20
8.56437
 30
 0
 11
2.42634
 21
8.56134
  0
LINE
  8
Gravur
 62
   255
 39
0.016
  6
CONTINUOUS
 10
2.42634
 20
8.56134
 30
 0
 11
2.42343
 21
8.55878
  0
LINE
  8
Gravur
 62
   255
 39
0.016
  6
CONTINUOUS
 10
2.42343
 20
8.55878
 30
 0
 11
2.42024
 21
8.55669
  0
LINE
  8
Gravur
 62
   255
 39
0.016
  6
CONTINUOUS
 10
2.42024
 20
8.55669
 30
 0
 11
2.41677
 21
8.55520
  0
LINE
  8
Gravur
 62
   255
 39
0.016
  6
CONTINUOUS
 10
2.41677
 20
8.55520
 30
 0
 11
2.41315
 21
8.55429
  0
LINE
  8
Gravur
 62
   255
 39
0.016
  6
CONTINUOUS
 10
2.41315
 20
8.55429
 30
 0
 11
2.40949
 21
8.55398
  0
LINE
  8
Gravur
 62
   255
 39
0.016
  6
CONTINUOUS
 10
2.40949
 20
8.55398
 30
 0
 11
2.40949
 21
8.55398
  0
LINE
  8
Gravur
 62
   255
 39
0.016
  6
CONTINUOUS
 10
2.40949
 20
8.55398
 30
 0
 11
2.38717
 21
8.55398
  0
LINE
  8
Gravur
 62
   255
 39
0.016
  6
CONTINUOUS
 10
2.38717
 20
8.55398
 30
 0
 11
2.40949
 21
8.55398
  0
LINE
  8
Gravur
 62
   255
 39
0.016
  6
CONTINUOUS
 10
2.40949
 20
8.55398
 30
 0
 11
2.43429
 21
8.49886
  0
LINE
  8
Gravur
 62
   255
 39
0.016
  6
CONTINUOUS
 10
2.50705
 20
8.60909
 30
 0
 11
2.46240
 21
8.60909
  0
LINE
  8
Gravur
 62
   255
 39
0.016
  6
CONTINUOUS
 10
2.46240
 20
8.60909
 30
 0
 11
2.46240
 21
8.49886
  0
LINE
  8
Gravur
 62
   255
 39
0.016
  6
CONTINUOUS
 10
2.46240
 20
8.49886
 30
 0
 11
2.50705
 21
8.49886
  0
LINE
  8
Gravur
 62
   255
 39
0.016
  6
CONTINUOUS
 10
2.46240
 20
8.55398
 30
 0
 11
2.49961
 21
8.55398
  0
LINE
  8
Gravur
 62
   255
 39
0.016
  6
CONTINUOUS
 10
2.53516
 20
8.52642
 30
 0
 11
2.53543
 21
8.52232
  0
LINE
  8
Gravur
 62
   255
 39
0.016
  6
CONTINUOUS
 10
2.53543
 20
8.52232
 30
 0
 11
2.53626
 21
8.51831
  0
LINE
  8
Gravur
 62
   255
 39
0.016
  6
CONTINUOUS
 10
2.53626
 20
8.51831
 30
 0
 11
2.53760
 21
8.51445
  0
LINE
  8
Gravur
 62
   255
 39
0.016
  6
CONTINUOUS
 10
2.53760
 20
8.51445
 30
 0
 11
2.53949
 21
8.51091
  0
LINE
  8
Gravur
 62
   255
 39
0.016
  6
CONTINUOUS
 10
2.53949
 20
8.51091
 30
 0
 11
2.54177
 21
8.50768
  0
LINE
  8
Gravur
 62
   255
 39
0.016
  6
CONTINUOUS
 10
2.54177
 20
8.50768
 30
 0
 11
2.54453
 21
8.50488
  0
LINE
  8
Gravur
 62
   255
 39
0.016
  6
CONTINUOUS
 10
2.54453
 20
8.50488
 30
 0
 11
2.54756
 21
8.50256
  0
LINE
  8
Gravur
 62
   255
 39
0.016
  6
CONTINUOUS
 10
2.54756
 20
8.50256
 30
 0
 11
2.55091
 21
8.50075
  0
LINE
  8
Gravur
 62
   255
 39
0.016
  6
CONTINUOUS
 10
2.55091
 20
8.50075
 30
 0
 11
2.55445
 21
8.49957
  0
LINE
  8
Gravur
 62
   255
 39
0.016
  6
CONTINUOUS
 10
2.55445
 20
8.49957
 30
 0
 11
2.55811
 21
8.49894
  0
LINE
  8
Gravur
 62
   255
 39
0.016
  6
CONTINUOUS
 10
2.55811
 20
8.49894
 30
 0
 11
2.56181
 21
8.49894
  0
LINE
  8
Gravur
 62
   255
 39
0.016
  6
CONTINUOUS
 10
2.56181
 20
8.49894
 30
 0
 11
2.56547
 21
8.49957
  0
LINE
  8
Gravur
 62
   255
 39
0.016
  6
CONTINUOUS
 10
2.56547
 20
8.49957
 30
 0
 11
2.56902
 21
8.50075
  0
LINE
  8
Gravur
 62
   255
 39
0.016
  6
CONTINUOUS
 10
2.56902
 20
8.50075
 30
 0
 11
2.57236
 21
8.50256
  0
LINE
  8
Gravur
 62
   255
 39
0.016
  6
CONTINUOUS
 10
2.57236
 20
8.50256
 30
 0
 11
2.57539
 21
8.50488
  0
LINE
  8
Gravur
 62
   255
 39
0.016
  6
CONTINUOUS
 10
2.57539
 20
8.50488
 30
 0
 11
2.57815
 21
8.50768
  0
LINE
  8
Gravur
 62
   255
 39
0.016
  6
CONTINUOUS
 10
2.57815
 20
8.50768
 30
 0
 11
2.58043
 21
8.51091
  0
LINE
  8
Gravur
 62
   255
 39
0.016
  6
CONTINUOUS
 10
2.58043
 20
8.51091
 30
 0
 11
2.58232
 21
8.51445
  0
LINE
  8
Gravur
 62
   255
 39
0.016
  6
CONTINUOUS
 10
2.58232
 20
8.51445
 30
 0
 11
2.58366
 21
8.51831
  0
LINE
  8
Gravur
 62
   255
 39
0.016
  6
CONTINUOUS
 10
2.58366
 20
8.51831
 30
 0
 11
2.58449
 21
8.52232
  0
LINE
  8
Gravur
 62
   255
 39
0.016
  6
CONTINUOUS
 10
2.58449
 20
8.52232
 30
 0
 11
2.58476
 21
8.52642
  0
LINE
  8
Gravur
 62
   255
 39
0.016
  6
CONTINUOUS
 10
2.58476
 20
8.52642
 30
 0
 11
2.58476
 21
8.52642
  0
LINE
  8
Gravur
 62
   255
 39
0.016
  6
CONTINUOUS
 10
2.58476
 20
8.52642
 30
 0
 11
2.58453
 21
8.53035
  0
LINE
  8
Gravur
 62
   255
 39
0.016
  6
CONTINUOUS
 10
2.58453
 20
8.53035
 30
 0
 11
2.58382
 21
8.53421
  0
LINE
  8
Gravur
 62
   255
 39
0.016
  6
CONTINUOUS
 10
2.58382
 20
8.53421
 30
 0
 11
2.58256
 21
8.53787
  0
LINE
  8
Gravur
 62
   255
 39
0.016
  6
CONTINUOUS
 10
2.58256
 20
8.53787
 30
 0
 11
2.58087
 21
8.54134
  0
LINE
  8
Gravur
 62
   255
 39
0.016
  6
CONTINUOUS
 10
2.58087
 20
8.54134
 30
 0
 11
2.57874
 21
8.54453
  0
LINE
  8
Gravur
 62
   255
 39
0.016
  6
CONTINUOUS
 10
2.57874
 20
8.54453
 30
 0
 11
2.57626
 21
8.54728
  0
LINE
  8
Gravur
 62
   255
 39
0.016
  6
CONTINUOUS
 10
2.57626
 20
8.54728
 30
 0
 11
2.57339
 21
8.54965
  0
LINE
  8
Gravur
 62
   255
 39
0.016
  6
CONTINUOUS
 10
2.57339
 20
8.54965
 30
 0
 11
2.57028
 21
8.55154
  0
LINE
  8
Gravur
 62
   255
 39
0.016
  6
CONTINUOUS
 10
2.57028
 20
8.55154
 30
 0
 11
2.56697
 21
8.55291
  0
LINE
  8
Gravur
 62
   255
 39
0.016
  6
CONTINUOUS
 10
2.56697
 20
8.55291
 30
 0
 11
2.56350
 21
8.55370
  0
LINE
  8
Gravur
 62
   255
 39
0.016
  6
CONTINUOUS
 10
2.56350
 20
8.55370
 30
 0
 11
2.55996
 21
8.55398
  0
LINE
  8
Gravur
 62
   255
 39
0.016
  6
CONTINUOUS
 10
2.55996
 20
8.55398
 30
 0
 11
2.55996
 21
8.55398
  0
LINE
  8
Gravur
 62
   255
 39
0.016
  6
CONTINUOUS
 10
2.55996
 20
8.55398
 30
 0
 11
2.55626
 21
8.55429
  0
LINE
  8
Gravur
 62
   255
 39
0.016
  6
CONTINUOUS
 10
2.55626
 20
8.55429
 30
 0
 11
2.55268
 21
8.55520
  0
LINE
  8
Gravur
 62
   255
 39
0.016
  6
CONTINUOUS
 10
2.55268
 20
8.55520
 30
 0
 11
2.54917
 21
8.55669
  0
LINE
  8
Gravur
 62
   255
 39
0.016
  6
CONTINUOUS
 10
2.54917
 20
8.55669
 30
 0
 11
2.54598
 21
8.55878
  0
LINE
  8
Gravur
 62
   255
 39
0.016
  6
CONTINUOUS
 10
2.54598
 20
8.55878
 30
 0
 11
2.54311
 21
8.56134
  0
LINE
  8
Gravur
 62
   255
 39
0.016
  6
CONTINUOUS
 10
2.54311
 20
8.56134
 30
 0
 11
2.54059
 21
8.56437
  0
LINE
  8
Gravur
 62
   255
 39
0.016
  6
CONTINUOUS
 10
2.54059
 20
8.56437
 30
 0
 11
2.53850
 21
8.56776
  0
LINE
  8
Gravur
 62
   255
 39
0.016
  6
CONTINUOUS
 10
2.53850
 20
8.56776
 30
 0
 11
2.53685
 21
8.57146
  0
LINE
  8
Gravur
 62
   255
 39
0.016
  6
CONTINUOUS
 10
2.53685
 20
8.57146
 30
 0
 11
2.53579
 21
8.57539
  0
LINE
  8
Gravur
 62
   255
 39
0.016
  6
CONTINUOUS
 10
2.53579
 20
8.57539
 30
 0
 11
2.53524
 21
8.57949
  0
LINE
  8
Gravur
 62
   255
 39
0.016
  6
CONTINUOUS
 10
2.53524
 20
8.57949
 30
 0
 11
2.53524
 21
8.58358
  0
LINE
  8
Gravur
 62
   255
 39
0.016
  6
CONTINUOUS
 10
2.53524
 20
8.58358
 30
 0
 11
2.53579
 21
8.58768
  0
LINE
  8
Gravur
 62
   255
 39
0.016
  6
CONTINUOUS
 10
2.53579
 20
8.58768
 30
 0
 11
2.53685
 21
8.59161
  0
LINE
  8
Gravur
 62
   255
 39
0.016
  6
CONTINUOUS
 10
2.53685
 20
8.59161
 30
 0
 11
2.53850
 21
8.59531
  0
LINE
  8
Gravur
 62
   255
 39
0.016
  6
CONTINUOUS
 10
2.53850
 20
8.59531
 30
 0
 11
2.54059
 21
8.59870
  0
LINE
  8
Gravur
 62
   255
 39
0.016
  6
CONTINUOUS
 10
2.54059
 20
8.59870
 30
 0
 11
2.54311
 21
8.60173
  0
LINE
  8
Gravur
 62
   255
 39
0.016
  6
CONTINUOUS
 10
2.54311
 20
8.60173
 30
 0
 11
2.54598
 21
8.60429
  0
LINE
  8
Gravur
 62
   255
 39
0.016
  6
CONTINUOUS
 10
2.54598
 20
8.60429
 30
 0
 11
2.54917
 21
8.60638
  0
LINE
  8
Gravur
 62
   255
 39
0.016
  6
CONTINUOUS
 10
2.54917
 20
8.60638
 30
 0
 11
2.55268
 21
8.60787
  0
LINE
  8
Gravur
 62
   255
 39
0.016
  6
CONTINUOUS
 10
2.55268
 20
8.60787
 30
 0
 11
2.55626
 21
8.60878
  0
LINE
  8
Gravur
 62
   255
 39
0.016
  6
CONTINUOUS
 10
2.55626
 20
8.60878
 30
 0
 11
2.55996
 21
8.60909
  0
LINE
  8
Gravur
 62
   255
 39
0.016
  6
CONTINUOUS
 10
2.55996
 20
8.60909
 30
 0
 11
2.55996
 21
8.60909
  0
LINE
  8
Gravur
 62
   255
 39
0.016
  6
CONTINUOUS
 10
2.55996
 20
8.60909
 30
 0
 11
2.56358
 21
8.60882
  0
LINE
  8
Gravur
 62
   255
 39
0.016
  6
CONTINUOUS
 10
2.56358
 20
8.60882
 30
 0
 11
2.56713
 21
8.60795
  0
LINE
  8
Gravur
 62
   255
 39
0.016
  6
CONTINUOUS
 10
2.56713
 20
8.60795
 30
 0
 11
2.57047
 21
8.60654
  0
LINE
  8
Gravur
 62
   255
 39
0.016
  6
CONTINUOUS
 10
2.57047
 20
8.60654
 30
 0
 11
2.57366
 21
8.60457
  0
LINE
  8
Gravur
 62
   255
 39
0.016
  6
CONTINUOUS
 10
2.57366
 20
8.60457
 30
 0
 11
2.57654
 21
8.60213
  0
LINE
  8
Gravur
 62
   255
 39
0.016
  6
CONTINUOUS
 10
2.57654
 20
8.60213
 30
 0
 11
2.57906
 21
8.59925
  0
LINE
  8
Gravur
 62
   255
 39
0.016
  6
CONTINUOUS
 10
2.57906
 20
8.59925
 30
 0
 11
2.58114
 21
8.59598
  0
LINE
  8
Gravur
 62
   255
 39
0.016
  6
CONTINUOUS
 10
2.58114
 20
8.59598
 30
 0
 11
2.58283
 21
8.59240
  0
LINE
  8
Gravur
 62
   255
 39
0.016
  6
CONTINUOUS
 10
2.58283
 20
8.59240
 30
 0
 11
2.58398
 21
8.58858
  0
LINE
  8
Gravur
 62
   255
 39
0.016
  6
CONTINUOUS
 10
2.58398
 20
8.58858
 30
 0
 11
2.58461
 21
8.58465
  0
LINE
  8
Gravur
 62
   255
 39
0.016
  6
CONTINUOUS
 10
2.58461
 20
8.58465
 30
 0
 11
2.58476
 21
8.58154
  0
LINE
  8
Gravur
 62
   255
 39
0.016
  6
CONTINUOUS
 10
2.70465
 20
8.61461
 30
 0
 11
2.69921
 21
8.59941
  0
LINE
  8
Gravur
 62
   255
 39
0.016
  6
CONTINUOUS
 10
2.69921
 20
8.59941
 30
 0
 11
2.69528
 21
8.58366
  0
LINE
  8
Gravur
 62
   255
 39
0.016
  6
CONTINUOUS
 10
2.69528
 20
8.58366
 30
 0
 11
2.69299
 21
8.56756
  0
LINE
  8
Gravur
 62
   255
 39
0.016
  6
CONTINUOUS
 10
2.69299
 20
8.56756
 30
 0
 11
2.69224
 21
8.55122
  0
LINE
  8
Gravur
 62
   255
 39
0.016
  6
CONTINUOUS
 10
2.69224
 20
8.55122
 30
 0
 11
2.69224
 21
8.55122
  0
LINE
  8
Gravur
 62
   255
 39
0.016
  6
CONTINUOUS
 10
2.69224
 20
8.55122
 30
 0
 11
2.69295
 21
8.53488
  0
LINE
  8
Gravur
 62
   255
 39
0.016
  6
CONTINUOUS
 10
2.69295
 20
8.53488
 30
 0
 11
2.69528
 21
8.51878
  0
LINE
  8
Gravur
 62
   255
 39
0.016
  6
CONTINUOUS
 10
2.69528
 20
8.51878
 30
 0
 11
2.69921
 21
8.50303
  0
LINE
  8
Gravur
 62
   255
 39
0.016
  6
CONTINUOUS
 10
2.69921
 20
8.50303
 30
 0
 11
2.70465
 21
8.48783
  0
LINE
  8
Gravur
 62
   255
 39
0.016
  6
CONTINUOUS
 10
2.70465
 20
8.48783
 30
 0
 11
2.70465
 21
8.48783
  0
LINE
  8
Gravur
 62
   255
 39
0.016
  6
CONTINUOUS
 10
2.73110
 20
8.52366
 30
 0
 11
2.73134
 21
8.51996
  0
LINE
  8
Gravur
 62
   255
 39
0.016
  6
CONTINUOUS
 10
2.73134
 20
8.51996
 30
 0
 11
2.73209
 21
8.51634
  0
LINE
  8
Gravur
 62
   255
 39
0.016
  6
CONTINUOUS
 10
2.73209
 20
8.51634
 30
 0
 11
2.73331
 21
8.51291
  0
LINE
  8
Gravur
 62
   255
 39
0.016
  6
CONTINUOUS
 10
2.73331
 20
8.51291
 30
 0
 11
2.73496
 21
8.50969
  0
LINE
  8
Gravur
 62
   255
 39
0.016
  6
CONTINUOUS
 10
2.73496
 20
8.50969
 30
 0
 11
2.73705
 21
8.50677
  0
LINE
  8
Gravur
 62
   255
 39
0.016
  6
CONTINUOUS
 10
2.73705
 20
8.50677
 30
 0
 11
2.73949
 21
8.50425
  0
LINE
  8
Gravur
 62
   255
 39
0.016
  6
CONTINUOUS
 10
2.73949
 20
8.50425
 30
 0
 11
2.74228
 21
8.50217
  0
LINE
  8
Gravur
 62
   255
 39
0.016
  6
CONTINUOUS
 10
2.74228
 20
8.50217
 30
 0
 11
2.74528
 21
8.50059
  0
LINE
  8
Gravur
 62
   255
 39
0.016
  6
CONTINUOUS
 10
2.74528
 20
8.50059
 30
 0
 11
2.74846
 21
8.49949
  0
LINE
  8
Gravur
 62
   255
 39
0.016
  6
CONTINUOUS
 10
2.74846
 20
8.49949
 30
 0
 11
2.75177
 21
8.49894
  0
LINE
  8
Gravur
 62
   255
 39
0.016
  6
CONTINUOUS
 10
2.75177
 20
8.49894
 30
 0
 11
2.75508
 21
8.49894
  0
LINE
  8
Gravur
 62
   255
 39
0.016
  6
CONTINUOUS
 10
2.75508
 20
8.49894
 30
 0
 11
2.75839
 21
8.49949
  0
LINE
  8
Gravur
 62
   255
 39
0.016
  6
CONTINUOUS
 10
2.75839
 20
8.49949
 30
 0
 11
2.76157
 21
8.50059
  0
LINE
  8
Gravur
 62
   255
 39
0.016
  6
CONTINUOUS
 10
2.76157
 20
8.50059
 30
 0
 11
2.76461
 21
8.50217
  0
LINE
  8
Gravur
 62
   255
 39
0.016
  6
CONTINUOUS
 10
2.76461
 20
8.50217
 30
 0
 11
2.76736
 21
8.50425
  0
LINE
  8
Gravur
 62
   255
 39
0.016
  6
CONTINUOUS
 10
2.76736
 20
8.50425
 30
 0
 11
2.76980
 21
8.50677
  0
LINE
  8
Gravur
 62
   255
 39
0.016
  6
CONTINUOUS
 10
2.76980
 20
8.50677
 30
 0
 11
2.77189
 21
8.50969
  0
LINE
  8
Gravur
 62
   255
 39
0.016
  6
CONTINUOUS
 10
2.77189
 20
8.50969
 30
 0
 11
2.77354
 21
8.51291
  0
LINE
  8
Gravur
 62
   255
 39
0.016
  6
CONTINUOUS
 10
2.77354
 20
8.51291
 30
 0
 11
2.77476
 21
8.51634
  0
LINE
  8
Gravur
 62
   255
 39
0.016
  6
CONTINUOUS
 10
2.77476
 20
8.51634
 30
 0
 11
2.77551
 21
8.51996
  0
LINE
  8
Gravur
 62
   255
 39
0.016
  6
CONTINUOUS
 10
2.77551
 20
8.51996
 30
 0
 11
2.77575
 21
8.52366
  0
LINE
  8
Gravur
 62
   255
 39
0.016
  6
CONTINUOUS
 10
2.77575
 20
8.52366
 30
 0
 11
2.77575
 21
8.52366
  0
LINE
  8
Gravur
 62
   255
 39
0.016
  6
CONTINUOUS
 10
2.77575
 20
8.52366
 30
 0
 11
2.77575
 21
8.58429
  0
LINE
  8
Gravur
 62
   255
 39
0.016
  6
CONTINUOUS
 10
2.77575
 20
8.58429
 30
 0
 11
2.77551
 21
8.58799
  0
LINE
  8
Gravur
 62
   255
 39
0.016
  6
CONTINUOUS
 10
2.77551
 20
8.58799
 30
 0
 11
2.77476
 21
8.59161
  0
LINE
  8
Gravur
 62
   255
 39
0.016
  6
CONTINUOUS
 10
2.77476
 20
8.59161
 30
 0
 11
2.77354
 21
8.59504
  0
LINE
  8
Gravur
 62
   255
 39
0.016
  6
CONTINUOUS
 10
2.77354
 20
8.59504
 30
 0
 11
2.77189
 21
8.59827
  0
LINE
  8
Gravur
 62
   255
 39
0.016
  6
CONTINUOUS
 10
2.77189
 20
8.59827
 30
 0
 11
2.76980
 21
8.60118
  0
LINE
  8
Gravur
 62
   255
 39
0.016
  6
CONTINUOUS
 10
2.76980
 20
8.60118
 30
 0
 11
2.76736
 21
8.60370
  0
LINE
  8
Gravur
 62
   255
 39
0.016
  6
CONTINUOUS
 10
2.76736
 20
8.60370
 30
 0
 11
2.76461
 21
8.60579
  0
LINE
  8
Gravur
 62
   255
 39
0.016
  6
CONTINUOUS
 10
2.76461
 20
8.60579
 30
 0
 11
2.76157
 21
8.60736
  0
LINE
  8
Gravur
 62
   255
 39
0.016
  6
CONTINUOUS
 10
2.76157
 20
8.60736
 30
 0
 11
2.75839
 21
8.60846
  0
LINE
  8
Gravur
 62
   255
 39
0.016
  6
CONTINUOUS
 10
2.75839
 20
8.60846
 30
 0
 11
2.75508
 21
8.60902
  0
LINE
  8
Gravur
 62
   255
 39
0.016
  6
CONTINUOUS
 10
2.75508
 20
8.60902
 30
 0
 11
2.75177
 21
8.60902
  0
LINE
  8
Gravur
 62
   255
 39
0.016
  6
CONTINUOUS
 10
2.75177
 20
8.60902
 30
 0
 11
2.74846
 21
8.60846
  0
LINE
  8
Gravur
 62
   255
 39
0.016
  6
CONTINUOUS
 10
2.74846
 20
8.60846
 30
 0
 11
2.74528
 21
8.60736
  0
LINE
  8
Gravur
 62
   255
 39
0.016
  6
CONTINUOUS
 10
2.74528
 20
8.60736
 30
 0
 11
2.74228
 21
8.60579
  0
LINE
  8
Gravur
 62
   255
 39
0.016
  6
CONTINUOUS
 10
2.74228
 20
8.60579
 30
 0
 11
2.73949
 21
8.60370
  0
LINE
  8
Gravur
 62
   255
 39
0.016
  6
CONTINUOUS
 10
2.73949
 20
8.60370
 30
 0
 11
2.73705
 21
8.60118
  0
LINE
  8
Gravur
 62
   255
 39
0.016
  6
CONTINUOUS
 10
2.73705
 20
8.60118
 30
 0
 11
2.73496
 21
8.59827
  0
LINE
  8
Gravur
 62
   255
 39
0.016
  6
CONTINUOUS
 10
2.73496
 20
8.59827
 30
 0
 11
2.73331
 21
8.59504
  0
LINE
  8
Gravur
 62
   255
 39
0.016
  6
CONTINUOUS
 10
2.73331
 20
8.59504
 30
 0
 11
2.73209
 21
8.59161
  0
LINE
  8
Gravur
 62
   255
 39
0.016
  6
CONTINUOUS
 10
2.73209
 20
8.59161
 30
 0
 11
2.73134
 21
8.58799
  0
LINE
  8
Gravur
 62
   255
 39
0.016
  6
CONTINUOUS
 10
2.73134
 20
8.58799
 30
 0
 11
2.73110
 21
8.58429
  0
LINE
  8
Gravur
 62
   255
 39
0.016
  6
CONTINUOUS
 10
2.73110
 20
8.58429
 30
 0
 11
2.73110
 21
8.58429
  0
LINE
  8
Gravur
 62
   255
 39
0.016
  6
CONTINUOUS
 10
2.73110
 20
8.58429
 30
 0
 11
2.73110
 21
8.52366
  0
LINE
  8
Gravur
 62
   255
 39
0.016
  6
CONTINUOUS
 10
2.76335
 20
8.51539
 30
 0
 11
2.77823
 21
8.49886
  0
LINE
  8
Gravur
 62
   255
 39
0.016
  6
CONTINUOUS
 10
2.80551
 20
8.61461
 30
 0
 11
2.81189
 21
8.59618
  0
LINE
  8
Gravur
 62
   255
 39
0.016
  6
CONTINUOUS
 10
2.81189
 20
8.59618
 30
 0
 11
2.81602
 21
8.57693
  0
LINE
  8
Gravur
 62
   255
 39
0.016
  6
CONTINUOUS
 10
2.81602
 20
8.57693
 30
 0
 11
2.81783
 21
8.55728
  0
LINE
  8
Gravur
 62
   255
 39
0.016
  6
CONTINUOUS
 10
2.81783
 20
8.55728
 30
 0
 11
2.81791
 21
8.55122
  0
LINE
  8
Gravur
 62
   255
 39
0.016
  6
CONTINUOUS
 10
2.81791
 20
8.55122
 30
 0
 11
2.81681
 21
8.53150
  0
LINE
  8
Gravur
 62
   255
 39
0.016
  6
CONTINUOUS
 10
2.81681
 20
8.53150
 30
 0
 11
2.81343
 21
8.51209
  0
LINE
  8
Gravur
 62
   255
 39
0.016
  6
CONTINUOUS
 10
2.81343
 20
8.51209
 30
 0
 11
2.80772
 21
8.49339
  0
LINE
  8
Gravur
 62
   255
 39
0.016
  6
CONTINUOUS
 10
2.80772
 20
8.49339
 30
 0
 11
2.80551
 21
8.48783
  0
ARC
  8
Gravur
 62
   255
 39
0.008
  6
CONTINUOUS
 10
1.87094
 20
7.85461
 30
 0
 40
0.01949
 50
91.50439
 51
-174.78461
  0
ARC
  8
Gravur
 62
   255
 39
0.008
  6
CONTINUOUS
 10
1.87142
 20
7.85354
 30
 0
 40
0.02059
 50
330.44533
 51
92.74196
  0
LINE
  8
Gravur
 62
   255
 39
0.008
  6
CONTINUOUS
 10
1.88933
 20
7.84339
 30
 0
 11
1.85154
 21
7.77961
  0
LINE
  8
Gravur
 62
   255
 39
0.008
  6
CONTINUOUS
 10
1.85154
 20
7.77961
 30
 0
 11
1.89169
 21
7.77961
  0
ARC
  8
Gravur
 62
   255
 39
0.008
  6
CONTINUOUS
 10
1.96728
 20
8.21882
 30
 0
 40
0.01937
 50
434.80614
 51
175.92268
  0
ARC
  8
Gravur
 62
   255
 39
0.008
  6
CONTINUOUS
 10
1.96689
 20
8.21732
 30
 0
 40
0.02091
 50
263.39742
 51
74.83943
  0
ARC
  8
Gravur
 62
   255
 39
0.008
  6
CONTINUOUS
 10
1.96768
 20
8.17098
 30
 0
 40
0.02579
 50
285.86128
 51
97.10332
  0
ARC
  8
Gravur
 62
   255
 39
0.008
  6
CONTINUOUS
 10
1.96823
 20
8.16799
 30
 0
 40
0.02276
 50
185.36509
 51
-73.41468
  0
LINE
  8
Gravur
 62
   255
 39
0.008
  6
CONTINUOUS
 10
2.24736
 20
8.50630
 30
 0
 11
2.21665
 21
8.43543
  0
LINE
  8
Gravur
 62
   255
 39
0.008
  6
CONTINUOUS
 10
2.21665
 20
8.43543
 30
 0
 11
2.25681
 21
8.43543
  0
LINE
  8
Gravur
 62
   255
 39
0.008
  6
CONTINUOUS
 10
2.24736
 20
8.45906
 30
 0
 11
2.24736
 21
8.41181
  0
LINE
  8
Gravur
 62
   255
 39
0.008
  6
CONTINUOUS
 10
1.95890
 20
7.48547
 30
 0
 11
1.98016
 21
7.50909
  0
LINE
  8
Gravur
 62
   255
 39
0.008
  6
CONTINUOUS
 10
1.98016
 20
7.50909
 30
 0
 11
1.98016
 21
7.41461
  0
ARC
  8
Gravur
 62
   255
 39
0.008
  6
CONTINUOUS
 10
2.23673
 20
7.16866
 30
 0
 40
0.02126
 50
180.00000
 51
360.00000
  0
LINE
  8
Gravur
 62
   255
 39
0.008
  6
CONTINUOUS
 10
2.25799
 20
7.16866
 30
 0
 11
2.25799
 21
7.22063
  0
ARC
  8
Gravur
 62
   255
 39
0.008
  6
CONTINUOUS
 10
2.23673
 20
7.22063
 30
 0
 40
0.02126
 50
0.00000
 51
180.00000
  0
LINE
  8
Gravur
 62
   255
 39
0.008
  6
CONTINUOUS
 10
2.21547
 20
7.22063
 30
 0
 11
2.21547
 21
7.16866
  0
LINE
  8
Gravur
 62
   255
 39
0.008
  6
CONTINUOUS
 10
2.92146
 20
7.21827
 30
 0
 11
2.94272
 21
7.24189
  0
LINE
  8
Gravur
 62
   255
 39
0.008
  6
CONTINUOUS
 10
2.94272
 20
7.24189
 30
 0
 11
2.94272
 21
7.14740
  0
ARC
  8
Gravur
 62
   255
 39
0.008
  6
CONTINUOUS
 10
2.99075
 20
7.16866
 30
 0
 40
0.02126
 50
180.00000
 51
360.00000
  0
LINE
  8
Gravur
 62
   255
 39
0.008
  6
CONTINUOUS
 10
3.01201
 20
7.16866
 30
 0
 11
3.01201
 21
7.22063
  0
ARC
  8
Gravur
 62
   255
 39
0.008
  6
CONTINUOUS
 10
2.99075
 20
7.22063
 30
 0
 40
0.02126
 50
0.00000
 51
180.00000
  0
LINE
  8
Gravur
 62
   255
 39
0.008
  6
CONTINUOUS
 10
2.96949
 20
7.22063
 30
 0
 11
2.96949
 21
7.16866
  0
ARC
  8
Gravur
 62
   255
 39
0.008
  6
CONTINUOUS
 10
3.23591
 20
7.43539
 30
 0
 40
0.02087
 50
178.70296
 51
264.59040
  0
ARC
  8
Gravur
 62
   255
 39
0.008
  6
CONTINUOUS
 10
3.23323
 20
7.43421
 30
 0
 40
0.01961
 50
-87.92997
 51
-2.07003
  0
LINE
  8
Gravur
 62
   255
 39
0.008
  6
CONTINUOUS
 10
3.25283
 20
7.43350
 30
 0
 11
3.25283
 21
7.49020
  0
ARC
  8
Gravur
 62
   255
 39
0.008
  6
CONTINUOUS
 10
3.23394
 20
7.49020
 30
 0
 40
0.01890
 50
0.00000
 51
180.00000
  0
LINE
  8
Gravur
 62
   255
 39
0.008
  6
CONTINUOUS
 10
3.21504
 20
7.49020
 30
 0
 11
3.21504
 21
7.47602
  0
ARC
  8
Gravur
 62
   255
 39
0.008
  6
CONTINUOUS
 10
3.23453
 20
7.47827
 30
 0
 40
0.01961
 50
-173.43124
 51
-20.83908
  0
ARC
  8
Gravur
 62
   255
 39
0.008
  6
CONTINUOUS
 10
3.33185
 20
7.79996
 30
 0
 40
0.02035
 50
-90.33247
 51
0.33247
  0
LINE
  8
Gravur
 62
   255
 39
0.008
  6
CONTINUOUS
 10
3.35220
 20
7.80008
 30
 0
 11
3.35220
 21
7.80717
  0
ARC
  8
Gravur
 62
   255
 39
0.008
  6
CONTINUOUS
 10
3.33224
 20
7.80689
 30
 0
 40
0.01996
 50
0.79102
 51
91.46880
  0
ARC
  8
Gravur
 62
   255
 39
0.008
  6
CONTINUOUS
 10
3.33185
 20
7.84563
 30
 0
 40
0.01878
 50
-90.36035
 51
0.36035
  0
LINE
  8
Gravur
 62
   255
 39
0.008
  6
CONTINUOUS
 10
3.35063
 20
7.84575
 30
 0
 11
3.35063
 21
7.85520
  0
ARC
  8
Gravur
 62
   255
 39
0.008
  6
CONTINUOUS
 10
3.33173
 20
7.85520
 30
 0
 40
0.01890
 50
0.00000
 51
180.00000
  0
LINE
  8
Gravur
 62
   255
 39
0.008
  6
CONTINUOUS
 10
3.31283
 20
7.85520
 30
 0
 11
3.31283
 21
7.84575
  0
ARC
  8
Gravur
 62
   255
 39
0.008
  6
CONTINUOUS
 10
3.33161
 20
7.84563
 30
 0
 40
0.01878
 50
179.63965
 51
270.36035
  0
ARC
  8
Gravur
 62
   255
 39
0.008
  6
CONTINUOUS
 10
3.33122
 20
7.80689
 30
 0
 40
0.01996
 50
88.53120
 51
179.20898
  0
LINE
  8
Gravur
 62
   255
 39
0.008
  6
CONTINUOUS
 10
3.31126
 20
7.80717
 30
 0
 11
3.31126
 21
7.80008
  0
ARC
  8
Gravur
 62
   255
 39
0.008
  6
CONTINUOUS
 10
3.33161
 20
7.79996
 30
 0
 40
0.02035
 50
179.66753
 51
270.33247
  0
LINE
  8
Gravur
 62
   255
 39
0.008
  6
CONTINUOUS
 10
3.21386
 20
8.22256
 30
 0
 11
3.21386
 21
8.23909
  0
LINE
  8
Gravur
 62
   255
 39
0.008
  6
CONTINUOUS
 10
3.21386
 20
8.23909
 30
 0
 11
3.25402
 21
8.23909
  0
LINE
  8
Gravur
 62
   255
 39
0.008
  6
CONTINUOUS
 10
3.25402
 20
8.23909
 30
 0
 11
3.22331
 21
8.14461
  0
ARC
  8
Gravur
 62
   255
 39
0.008
  6
CONTINUOUS
 10
2.96598
 20
8.48551
 30
 0
 40
0.02087
 50
-1.29704
 51
84.59040
  0
ARC
  8
Gravur
 62
   255
 39
0.008
  6
CONTINUOUS
 10
2.96618
 20
8.48689
 30
 0
 40
0.01949
 50
84.78461
 51
178.49561
  0
LINE
  8
Gravur
 62
   255
 39
0.008
  6
CONTINUOUS
 10
2.94669
 20
8.48740
 30
 0
 11
2.94669
 21
8.43071
  0
ARC
  8
Gravur
 62
   255
 39
0.008
  6
CONTINUOUS
 10
2.96780
 20
8.43291
 30
 0
 40
0.02122
 50
-174.03551
 51
-95.96449
  0
ARC
  8
Gravur
 62
   255
 39
0.008
  6
CONTINUOUS
 10
2.96606
 20
8.43268
 30
 0
 40
0.02087
 50
-91.29704
 51
-5.40960
  0
LINE
  8
Gravur
 62
   255
 39
0.008
  6
CONTINUOUS
 10
2.98685
 20
8.43071
 30
 0
 11
2.98685
 21
8.44961
  0
ARC
  8
Gravur
 62
   255
 39
0.008
  6
CONTINUOUS
 10
2.96571
 20
8.44720
 30
 0
 40
0.02126
 50
6.48068
 51
153.48242
  0
LINE
  8
Gravur
 62
   255
 39
0.016
  6
CONTINUOUS
 10
2.56283
 20
6.96020
 30
 0
 11
2.56248
 21
6.96366
  0
LINE
  8
Gravur
 62
   255
 39
0.016
  6
CONTINUOUS
 10
2.56248
 20
6.96366
 30
 0
 11
2.56165
 21
6.96701
  0
LINE
  8
Gravur
 62
   255
 39
0.016
  6
CONTINUOUS
 10
2.56165
 20
6.96701
 30
 0
 11
2.56043
 21
6.97020
  0
LINE
  8
Gravur
 62
   255
 39
0.016
  6
CONTINUOUS
 10
2.56043
 20
6.97020
 30
 0
 11
2.55878
 21
6.97315
  0
LINE
  8
Gravur
 62
   255
 39
0.016
  6
CONTINUOUS
 10
2.55878
 20
6.97315
 30
 0
 11
2.55681
 21
6.97583
  0
LINE
  8
Gravur
 62
   255
 39
0.016
  6
CONTINUOUS
 10
2.55681
 20
6.97583
 30
 0
 11
2.55449
 21
6.97815
  0
LINE
  8
Gravur
 62
   255
 39
0.016
  6
CONTINUOUS
 10
2.55449
 20
6.97815
 30
 0
 11
2.55185
 21
6.98004
  0
LINE
  8
Gravur
 62
   255
 39
0.016
  6
CONTINUOUS
 10
2.55185
 20
6.98004
 30
 0
 11
2.54902
 21
6.98154
  0
LINE
  8
Gravur
 62
   255
 39
0.016
  6
CONTINUOUS
 10
2.54902
 20
6.98154
 30
 0
 11
2.54598
 21
6.98252
  0
LINE
  8
Gravur
 62
   255
 39
0.016
  6
CONTINUOUS
 10
2.54598
 20
6.98252
 30
 0
 11
2.54291
 21
6.98303
  0
LINE
  8
Gravur
 62
   255
 39
0.016
  6
CONTINUOUS
 10
2.54291
 20
6.98303
 30
 0
 11
2.53980
 21
6.98303
  0
LINE
  8
Gravur
 62
   255
 39
0.016
  6
CONTINUOUS
 10
2.53980
 20
6.98303
 30
 0
 11
2.53669
 21
6.98252
  0
LINE
  8
Gravur
 62
   255
 39
0.016
  6
CONTINUOUS
 10
2.53669
 20
6.98252
 30
 0
 11
2.53370
 21
6.98154
  0
LINE
  8
Gravur
 62
   255
 39
0.016
  6
CONTINUOUS
 10
2.53370
 20
6.98154
 30
 0
 11
2.53087
 21
6.98004
  0
LINE
  8
Gravur
 62
   255
 39
0.016
  6
CONTINUOUS
 10
2.53087
 20
6.98004
 30
 0
 11
2.52827
 21
6.97815
  0
LINE
  8
Gravur
 62
   255
 39
0.016
  6
CONTINUOUS
 10
2.52827
 20
6.97815
 30
 0
 11
2.52591
 21
6.97583
  0
LINE
  8
Gravur
 62
   255
 39
0.016
  6
CONTINUOUS
 10
2.52591
 20
6.97583
 30
 0
 11
2.52394
 21
6.97315
  0
LINE
  8
Gravur
 62
   255
 39
0.016
  6
CONTINUOUS
 10
2.52394
 20
6.97315
 30
 0
 11
2.52228
 21
6.97020
  0
LINE
  8
Gravur
 62
   255
 39
0.016
  6
CONTINUOUS
 10
2.52228
 20
6.97020
 30
 0
 11
2.52106
 21
6.96701
  0
LINE
  8
Gravur
 62
   255
 39
0.016
  6
CONTINUOUS
 10
2.52106
 20
6.96701
 30
 0
 11
2.52024
 21
6.96366
  0
LINE
  8
Gravur
 62
   255
 39
0.016
  6
CONTINUOUS
 10
2.52024
 20
6.96366
 30
 0
 11
2.51988
 21
6.96020
  0
LINE
  8
Gravur
 62
   255
 39
0.016
  6
CONTINUOUS
 10
2.51988
 20
6.96020
 30
 0
 11
2.51984
 21
6.96020
  0
LINE
  8
Gravur
 62
   255
 39
0.016
  6
CONTINUOUS
 10
2.51984
 20
6.96020
 30
 0
 11
2.51984
 21
6.89776
  0
LINE
  8
Gravur
 62
   255
 39
0.016
  6
CONTINUOUS
 10
2.51984
 20
6.89776
 30
 0
 11
2.52020
 21
6.89429
  0
LINE
  8
Gravur
 62
   255
 39
0.016
  6
CONTINUOUS
 10
2.52020
 20
6.89429
 30
 0
 11
2.52102
 21
6.89094
  0
LINE
  8
Gravur
 62
   255
 39
0.016
  6
CONTINUOUS
 10
2.52102
 20
6.89094
 30
 0
 11
2.52224
 21
6.88772
  0
LINE
  8
Gravur
 62
   255
 39
0.016
  6
CONTINUOUS
 10
2.52224
 20
6.88772
 30
 0
 11
2.52390
 21
6.88476
  0
LINE
  8
Gravur
 62
   255
 39
0.016
  6
CONTINUOUS
 10
2.52390
 20
6.88476
 30
 0
 11
2.52591
 21
6.88209
  0
LINE
  8
Gravur
 62
   255
 39
0.016
  6
CONTINUOUS
 10
2.52591
 20
6.88209
 30
 0
 11
2.52827
 21
6.87976
  0
LINE
  8
Gravur
 62
   255
 39
0.016
  6
CONTINUOUS
 10
2.52827
 20
6.87976
 30
 0
 11
2.53083
 21
6.87787
  0
LINE
  8
Gravur
 62
   255
 39
0.016
  6
CONTINUOUS
 10
2.53083
 20
6.87787
 30
 0
 11
2.53370
 21
6.87638
  0
LINE
  8
Gravur
 62
   255
 39
0.016
  6
CONTINUOUS
 10
2.53370
 20
6.87638
 30
 0
 11
2.53669
 21
6.87539
  0
LINE
  8
Gravur
 62
   255
 39
0.016
  6
CONTINUOUS
 10
2.53669
 20
6.87539
 30
 0
 11
2.53980
 21
6.87488
  0
LINE
  8
Gravur
 62
   255
 39
0.016
  6
CONTINUOUS
 10
2.53980
 20
6.87488
 30
 0
 11
2.54291
 21
6.87488
  0
LINE
  8
Gravur
 62
   255
 39
0.016
  6
CONTINUOUS
 10
2.54291
 20
6.87488
 30
 0
 11
2.54602
 21
6.87539
  0
LINE
  8
Gravur
 62
   255
 39
0.016
  6
CONTINUOUS
 10
2.54602
 20
6.87539
 30
 0
 11
2.54902
 21
6.87638
  0
LINE
  8
Gravur
 62
   255
 39
0.016
  6
CONTINUOUS
 10
2.54902
 20
6.87638
 30
 0
 11
2.55185
 21
6.87787
  0
LINE
  8
Gravur
 62
   255
 39
0.016
  6
CONTINUOUS
 10
2.55185
 20
6.87787
 30
 0
 11
2.55449
 21
6.87976
  0
LINE
  8
Gravur
 62
   255
 39
0.016
  6
CONTINUOUS
 10
2.55449
 20
6.87976
 30
 0
 11
2.55681
 21
6.88209
  0
LINE
  8
Gravur
 62
   255
 39
0.016
  6
CONTINUOUS
 10
2.55681
 20
6.88209
 30
 0
 11
2.55882
 21
6.88476
  0
LINE
  8
Gravur
 62
   255
 39
0.016
  6
CONTINUOUS
 10
2.55882
 20
6.88476
 30
 0
 11
2.56047
 21
6.88772
  0
LINE
  8
Gravur
 62
   255
 39
0.016
  6
CONTINUOUS
 10
2.56047
 20
6.88772
 30
 0
 11
2.56169
 21
6.89094
  0
LINE
  8
Gravur
 62
   255
 39
0.016
  6
CONTINUOUS
 10
2.56169
 20
6.89094
 30
 0
 11
2.56252
 21
6.89429
  0
LINE
  8
Gravur
 62
   255
 39
0.016
  6
CONTINUOUS
 10
2.56252
 20
6.89429
 30
 0
 11
2.56287
 21
6.89776
  0
LINE
  8
Gravur
 62
   255
 39
0.016
  6
CONTINUOUS
 10
2.56287
 20
6.89776
 30
 0
 11
2.56283
 21
6.89776
  0
LINE
  8
Gravur
 62
   255
 39
0.016
  6
CONTINUOUS
 10
2.59094
 20
6.98409
 30
 0
 11
2.61327
 21
6.87386
  0
LINE
  8
Gravur
 62
   255
 39
0.016
  6
CONTINUOUS
 10
2.61327
 20
6.87386
 30
 0
 11
2.63559
 21
6.98409
  0
LINE
  8
Gravur
 62
   255
 39
0.016
  6
CONTINUOUS
 10
2.66287
 20
6.95654
 30
 0
 11
2.68520
 21
6.98409
  0
LINE
  8
Gravur
 62
   255
 39
0.016
  6
CONTINUOUS
 10
2.68520
 20
6.98409
 30
 0
 11
2.68520
 21
6.87386
  0
ARC
  8
Gravur
 62
   255
 39
0.008
  6
CONTINUOUS
 10
1.87094
 20
6.22972
 30
 0
 40
0.01949
 50
91.50439
 51
-174.78461
  0
ARC
  8
Gravur
 62
   255
 39
0.008
  6
CONTINUOUS
 10
1.87142
 20
6.22866
 30
 0
 40
0.02059
 50
330.44533
 51
92.74196
  0
LINE
  8
Gravur
 62
   255
 39
0.008
  6
CONTINUOUS
 10
1.88933
 20
6.21850
 30
 0
 11
1.85154
 21
6.15472
  0
LINE
  8
Gravur
 62
   255
 39
0.008
  6
CONTINUOUS
 10
1.85154
 20
6.15472
 30
 0
 11
1.89169
 21
6.15472
  0
ARC
  8
Gravur
 62
   255
 39
0.008
  6
CONTINUOUS
 10
1.96728
 20
6.59394
 30
 0
 40
0.01937
 50
434.80614
 51
175.92268
  0
ARC
  8
Gravur
 62
   255
 39
0.008
  6
CONTINUOUS
 10
1.96689
 20
6.59244
 30
 0
 40
0.02091
 50
263.39742
 51
74.83943
  0
ARC
  8
Gravur
 62
   255
 39
0.008
  6
CONTINUOUS
 10
1.96768
 20
6.54610
 30
 0
 40
0.02579
 50
285.86128
 51
97.10332
  0
ARC
  8
Gravur
 62
   255
 39
0.008
  6
CONTINUOUS
 10
1.96823
 20
6.54311
 30
 0
 40
0.02276
 50
185.36509
 51
-73.41468
  0
LINE
  8
Gravur
 62
   255
 39
0.008
  6
CONTINUOUS
 10
2.24736
 20
6.88142
 30
 0
 11
2.21665
 21
6.81055
  0
LINE
  8
Gravur
 62
   255
 39
0.008
  6
CONTINUOUS
 10
2.21665
 20
6.81055
 30
 0
 11
2.25681
 21
6.81055
  0
LINE
  8
Gravur
 62
   255
 39
0.008
  6
CONTINUOUS
 10
2.24736
 20
6.83417
 30
 0
 11
2.24736
 21
6.78693
  0
LINE
  8
Gravur
 62
   255
 39
0.008
  6
CONTINUOUS
 10
1.95890
 20
5.86059
 30
 0
 11
1.98016
 21
5.88421
  0
LINE
  8
Gravur
 62
   255
 39
0.008
  6
CONTINUOUS
 10
1.98016
 20
5.88421
 30
 0
 11
1.98016
 21
5.78972
  0
ARC
  8
Gravur
 62
   255
 39
0.008
  6
CONTINUOUS
 10
2.23673
 20
5.54378
 30
 0
 40
0.02126
 50
180.00000
 51
360.00000
  0
LINE
  8
Gravur
 62
   255
 39
0.008
  6
CONTINUOUS
 10
2.25799
 20
5.54378
 30
 0
 11
2.25799
 21
5.59575
  0
ARC
  8
Gravur
 62
   255
 39
0.008
  6
CONTINUOUS
 10
2.23673
 20
5.59575
 30
 0
 40
0.02126
 50
0.00000
 51
180.00000
  0
LINE
  8
Gravur
 62
   255
 39
0.008
  6
CONTINUOUS
 10
2.21547
 20
5.59575
 30
 0
 11
2.21547
 21
5.54378
  0
LINE
  8
Gravur
 62
   255
 39
0.008
  6
CONTINUOUS
 10
2.92146
 20
5.59339
 30
 0
 11
2.94272
 21
5.61701
  0
LINE
  8
Gravur
 62
   255
 39
0.008
  6
CONTINUOUS
 10
2.94272
 20
5.61701
 30
 0
 11
2.94272
 21
5.52252
  0
ARC
  8
Gravur
 62
   255
 39
0.008
  6
CONTINUOUS
 10
2.99075
 20
5.54378
 30
 0
 40
0.02126
 50
180.00000
 51
360.00000
  0
LINE
  8
Gravur
 62
   255
 39
0.008
  6
CONTINUOUS
 10
3.01201
 20
5.54378
 30
 0
 11
3.01201
 21
5.59575
  0
ARC
  8
Gravur
 62
   255
 39
0.008
  6
CONTINUOUS
 10
2.99075
 20
5.59575
 30
 0
 40
0.02126
 50
0.00000
 51
180.00000
  0
LINE
  8
Gravur
 62
   255
 39
0.008
  6
CONTINUOUS
 10
2.96949
 20
5.59575
 30
 0
 11
2.96949
 21
5.54378
  0
ARC
  8
Gravur
 62
   255
 39
0.008
  6
CONTINUOUS
 10
3.23591
 20
5.81051
 30
 0
 40
0.02087
 50
178.70296
 51
264.59040
  0
ARC
  8
Gravur
 62
   255
 39
0.008
  6
CONTINUOUS
 10
3.23323
 20
5.80933
 30
 0
 40
0.01961
 50
-87.92997
 51
-2.07003
  0
LINE
  8
Gravur
 62
   255
 39
0.008
  6
CONTINUOUS
 10
3.25283
 20
5.80862
 30
 0
 11
3.25283
 21
5.86531
  0
ARC
  8
Gravur
 62
   255
 39
0.008
  6
CONTINUOUS
 10
3.23394
 20
5.86531
 30
 0
 40
0.01890
 50
0.00000
 51
180.00000
  0
LINE
  8
Gravur
 62
   255
 39
0.008
  6
CONTINUOUS
 10
3.21504
 20
5.86531
 30
 0
 11
3.21504
 21
5.85114
  0
ARC
  8
Gravur
 62
   255
 39
0.008
  6
CONTINUOUS
 10
3.23453
 20
5.85339
 30
 0
 40
0.01961
 50
-173.43124
 51
-20.83908
  0
ARC
  8
Gravur
 62
   255
 39
0.008
  6
CONTINUOUS
 10
3.33185
 20
6.17508
 30
 0
 40
0.02035
 50
-90.33247
 51
0.33247
  0
LINE
  8
Gravur
 62
   255
 39
0.008
  6
CONTINUOUS
 10
3.35220
 20
6.17520
 30
 0
 11
3.35220
 21
6.18228
  0
ARC
  8
Gravur
 62
   255
 39
0.008
  6
CONTINUOUS
 10
3.33224
 20
6.18201
 30
 0
 40
0.01996
 50
0.79102
 51
91.46880
  0
ARC
  8
Gravur
 62
   255
 39
0.008
  6
CONTINUOUS
 10
3.33185
 20
6.22075
 30
 0
 40
0.01878
 50
-90.36035
 51
0.36035
  0
LINE
  8
Gravur
 62
   255
 39
0.008
  6
CONTINUOUS
 10
3.35063
 20
6.22087
 30
 0
 11
3.35063
 21
6.23031
  0
ARC
  8
Gravur
 62
   255
 39
0.008
  6
CONTINUOUS
 10
3.33173
 20
6.23031
 30
 0
 40
0.01890
 50
0.00000
 51
180.00000
  0
LINE
  8
Gravur
 62
   255
 39
0.008
  6
CONTINUOUS
 10
3.31283
 20
6.23031
 30
 0
 11
3.31283
 21
6.22087
  0
ARC
  8
Gravur
 62
   255
 39
0.008
  6
CONTINUOUS
 10
3.33161
 20
6.22075
 30
 0
 40
0.01878
 50
179.63965
 51
270.36035
  0
ARC
  8
Gravur
 62
   255
 39
0.008
  6
CONTINUOUS
 10
3.33122
 20
6.18201
 30
 0
 40
0.01996
 50
88.53120
 51
179.20898
  0
LINE
  8
Gravur
 62
   255
 39
0.008
  6
CONTINUOUS
 10
3.31126
 20
6.18228
 30
 0
 11
3.31126
 21
6.17520
  0
ARC
  8
Gravur
 62
   255
 39
0.008
  6
CONTINUOUS
 10
3.33161
 20
6.17508
 30
 0
 40
0.02035
 50
179.66753
 51
270.33247
  0
LINE
  8
Gravur
 62
   255
 39
0.008
  6
CONTINUOUS
 10
3.21386
 20
6.59768
 30
 0
 11
3.21386
 21
6.61421
  0
LINE
  8
Gravur
 62
   255
 39
0.008
  6
CONTINUOUS
 10
3.21386
 20
6.61421
 30
 0
 11
3.25402
 21
6.61421
  0
LINE
  8
Gravur
 62
   255
 39
0.008
  6
CONTINUOUS
 10
3.25402
 20
6.61421
 30
 0
 11
3.22331
 21
6.51972
  0
ARC
  8
Gravur
 62
   255
 39
0.008
  6
CONTINUOUS
 10
2.96598
 20
6.86063
 30
 0
 40
0.02087
 50
-1.29704
 51
84.59040
  0
ARC
  8
Gravur
 62
   255
 39
0.008
  6
CONTINUOUS
 10
2.96618
 20
6.86201
 30
 0
 40
0.01949
 50
84.78461
 51
178.49561
  0
LINE
  8
Gravur
 62
   255
 39
0.008
  6
CONTINUOUS
 10
2.94669
 20
6.86252
 30
 0
 11
2.94669
 21
6.80583
  0
ARC
  8
Gravur
 62
   255
 39
0.008
  6
CONTINUOUS
 10
2.96780
 20
6.80803
 30
 0
 40
0.02122
 50
-174.03551
 51
-95.96449
  0
ARC
  8
Gravur
 62
   255
 39
0.008
  6
CONTINUOUS
 10
2.96606
 20
6.80780
 30
 0
 40
0.02087
 50
-91.29704
 51
-5.40960
  0
LINE
  8
Gravur
 62
   255
 39
0.008
  6
CONTINUOUS
 10
2.98685
 20
6.80583
 30
 0
 11
2.98685
 21
6.82472
  0
ARC
  8
Gravur
 62
   255
 39
0.008
  6
CONTINUOUS
 10
2.96571
 20
6.82232
 30
 0
 40
0.02126
 50
6.48068
 51
153.48242
  0
LINE
  8
Gravur
 62
   255
 39
0.008
  6
CONTINUOUS
 10
2.55335
 20
6.20508
 30
 0
 11
2.65177
 21
6.20508
  0
LINE
  8
Gravur
 62
   255
 39
0.008
  6
CONTINUOUS
 10
2.60256
 20
6.25429
 30
 0
 11
2.60256
 21
6.15587
  0
LINE
  8
Gravur
 62
   255
 39
0.008
  6
CONTINUOUS
 10
3.03406
 20
5.77354
 30
 0
 11
2.81134
 21
5.99626
  0
LINE
  8
Gravur
 62
   255
 39
0.008
  6
CONTINUOUS
 10
2.81134
 20
5.99626
 30
 0
 11
2.81134
 21
5.99626
  0
LINE
  8
Gravur
 62
   255
 39
0.008
  6
CONTINUOUS
 10
2.88776
 20
6.12866
 30
 0
 11
2.88776
 21
6.12866
  0
LINE
  8
Gravur
 62
   255
 39
0.008
  6
CONTINUOUS
 10
2.88776
 20
6.12866
 30
 0
 11
3.19201
 21
6.04713
  0
LINE
  8
Gravur
 62
   255
 39
0.008
  6
CONTINUOUS
 10
3.19201
 20
6.36299
 30
 0
 11
2.88776
 21
6.28146
  0
LINE
  8
Gravur
 62
   255
 39
0.008
  6
CONTINUOUS
 10
2.88776
 20
6.28146
 30
 0
 11
2.88776
 21
6.28146
  0
LINE
  8
Gravur
 62
   255
 39
0.008
  6
CONTINUOUS
 10
2.81134
 20
6.41386
 30
 0
 11
2.81134
 21
6.41386
  0
LINE
  8
Gravur
 62
   255
 39
0.008
  6
CONTINUOUS
 10
2.81134
 20
6.41386
 30
 0
 11
3.03406
 21
6.63657
  0
LINE
  8
Gravur
 62
   255
 39
0.008
  6
CONTINUOUS
 10
2.76047
 20
6.79453
 30
 0
 11
2.67894
 21
6.49028
  0
LINE
  8
Gravur
 62
   255
 39
0.008
  6
CONTINUOUS
 10
2.67894
 20
6.49028
 30
 0
 11
2.67894
 21
6.49028
  0
LINE
  8
Gravur
 62
   255
 39
0.008
  6
CONTINUOUS
 10
2.52614
 20
6.49028
 30
 0
 11
2.52614
 21
6.49028
  0
LINE
  8
Gravur
 62
   255
 39
0.008
  6
CONTINUOUS
 10
2.52614
 20
6.49028
 30
 0
 11
2.44461
 21
6.79453
  0
LINE
  8
Gravur
 62
   255
 39
0.008
  6
CONTINUOUS
 10
2.17102
 20
6.63657
 30
 0
 11
2.39374
 21
6.41386
  0
LINE
  8
Gravur
 62
   255
 39
0.008
  6
CONTINUOUS
 10
2.39374
 20
6.41386
 30
 0
 11
2.39374
 21
6.41386
  0
LINE
  8
Gravur
 62
   255
 39
0.008
  6
CONTINUOUS
 10
2.31732
 20
6.28146
 30
 0
 11
2.31732
 21
6.28146
  0
LINE
  8
Gravur
 62
   255
 39
0.008
  6
CONTINUOUS
 10
2.31732
 20
6.28146
 30
 0
 11
2.01307
 21
6.36299
  0
LINE
  8
Gravur
 62
   255
 39
0.008
  6
CONTINUOUS
 10
2.01307
 20
6.04713
 30
 0
 11
2.31732
 21
6.12866
  0
LINE
  8
Gravur
 62
   255
 39
0.008
  6
CONTINUOUS
 10
2.31732
 20
6.12866
 30
 0
 11
2.31732
 21
6.12866
  0
LINE
  8
Gravur
 62
   255
 39
0.008
  6
CONTINUOUS
 10
2.39374
 20
5.99626
 30
 0
 11
2.39374
 21
5.99626
  0
LINE
  8
Gravur
 62
   255
 39
0.008
  6
CONTINUOUS
 10
2.39374
 20
5.99626
 30
 0
 11
2.17102
 21
5.77354
  0
LINE
  8
Gravur
 62
   255
 39
0.016
  6
CONTINUOUS
 10
2.55331
 20
6.20177
 30
 0
 11
2.65173
 21
6.20177
  0
LINE
  8
Gravur
 62
   255
 39
0.016
  6
CONTINUOUS
 10
2.60252
 20
6.25098
 30
 0
 11
2.60252
 21
6.15256
  0
LINE
  8
Gravur
 62
   255
 39
0.016
  6
CONTINUOUS
 10
2.28756
 20
5.65626
 30
 0
 11
2.45484
 21
5.94602
  0
LINE
  8
Gravur
 62
   255
 39
0.016
  6
CONTINUOUS
 10
2.45484
 20
5.94602
 30
 0
 11
2.45488
 21
5.94602
  0
LINE
  8
Gravur
 62
   255
 39
0.016
  6
CONTINUOUS
 10
2.91748
 20
5.65626
 30
 0
 11
2.75016
 21
5.94602
  0
LINE
  8
Gravur
 62
   255
 39
0.016
  6
CONTINUOUS
 10
2.75016
 20
5.94602
 30
 0
 11
2.75016
 21
5.94602
  0
LINE
  8
Gravur
 62
   255
 39
0.016
  6
CONTINUOUS
 10
2.85823
 20
6.05409
 30
 0
 11
2.85823
 21
6.05409
  0
LINE
  8
Gravur
 62
   255
 39
0.016
  6
CONTINUOUS
 10
2.85823
 20
6.05409
 30
 0
 11
3.14803
 21
5.88677
  0
LINE
  8
Gravur
 62
   255
 39
0.016
  6
CONTINUOUS
 10
3.23244
 20
6.20177
 30
 0
 11
2.89780
 21
6.20177
  0
LINE
  8
Gravur
 62
   255
 39
0.016
  6
CONTINUOUS
 10
2.89780
 20
6.20177
 30
 0
 11
2.89780
 21
6.20177
  0
LINE
  8
Gravur
 62
   255
 39
0.016
  6
CONTINUOUS
 10
2.85823
 20
6.34941
 30
 0
 11
2.85823
 21
6.34941
  0
LINE
  8
Gravur
 62
   255
 39
0.016
  6
CONTINUOUS
 10
2.85823
 20
6.34941
 30
 0
 11
3.14803
 21
6.51673
  0
LINE
  8
Gravur
 62
   255
 39
0.016
  6
CONTINUOUS
 10
2.91744
 20
6.74728
 30
 0
 11
2.75016
 21
6.45748
  0
LINE
  8
Gravur
 62
   255
 39
0.016
  6
CONTINUOUS
 10
2.75016
 20
6.45748
 30
 0
 11
2.75012
 21
6.45748
  0
LINE
  8
Gravur
 62
   255
 39
0.016
  6
CONTINUOUS
 10
2.60252
 20
6.49705
 30
 0
 11
2.60252
 21
6.49705
  0
LINE
  8
Gravur
 62
   255
 39
0.016
  6
CONTINUOUS
 10
2.60252
 20
6.49705
 30
 0
 11
2.60252
 21
6.83169
  0
LINE
  8
Gravur
 62
   255
 39
0.016
  6
CONTINUOUS
 10
2.28756
 20
6.74728
 30
 0
 11
2.45488
 21
6.45748
  0
LINE
  8
Gravur
 62
   255
 39
0.016
  6
CONTINUOUS
 10
2.45488
 20
6.45748
 30
 0
 11
2.45488
 21
6.45748
  0
LINE
  8
Gravur
 62
   255
 39
0.016
  6
CONTINUOUS
 10
2.34677
 20
6.34941
 30
 0
 11
2.34677
 21
6.34941
  0
LINE
  8
Gravur
 62
   255
 39
0.016
  6
CONTINUOUS
 10
2.34677
 20
6.34941
 30
 0
 11
2.05701
 21
6.51669
  0
LINE
  8
Gravur
 62
   255
 39
0.016
  6
CONTINUOUS
 10
1.97260
 20
6.20177
 30
 0
 11
2.30724
 21
6.20177
  0
LINE
  8
Gravur
 62
   255
 39
0.016
  6
CONTINUOUS
 10
2.30724
 20
6.20177
 30
 0
 11
2.30724
 21
6.20177
  0
LINE
  8
Gravur
 62
   255
 39
0.016
  6
CONTINUOUS
 10
2.34677
 20
6.05413
 30
 0
 11
2.34677
 21
6.05413
  0
LINE
  8
Gravur
 62
   255
 39
0.016
  6
CONTINUOUS
 10
2.34677
 20
6.05413
 30
 0
 11
2.05701
 21
5.88681
  0
LINE
  8
Gravur
 62
   255
 39
0.008
  6
CONTINUOUS
 10
2.55335
 20
7.83000
 30
 0
 11
2.65177
 21
7.83000
  0
LINE
  8
Gravur
 62
   255
 39
0.008
  6
CONTINUOUS
 10
2.60256
 20
7.87921
 30
 0
 11
2.60256
 21
7.78079
  0
LINE
  8
Gravur
 62
   255
 39
0.008
  6
CONTINUOUS
 10
3.03406
 20
7.39846
 30
 0
 11
2.81134
 21
7.62118
  0
LINE
  8
Gravur
 62
   255
 39
0.008
  6
CONTINUOUS
 10
2.81134
 20
7.62118
 30
 0
 11
2.81134
 21
7.62118
  0
LINE
  8
Gravur
 62
   255
 39
0.008
  6
CONTINUOUS
 10
2.88776
 20
7.75358
 30
 0
 11
2.88776
 21
7.75358
  0
LINE
  8
Gravur
 62
   255
 39
0.008
  6
CONTINUOUS
 10
2.88776
 20
7.75358
 30
 0
 11
3.19201
 21
7.67205
  0
LINE
  8
Gravur
 62
   255
 39
0.008
  6
CONTINUOUS
 10
3.19201
 20
7.98791
 30
 0
 11
2.88776
 21
7.90638
  0
LINE
  8
Gravur
 62
   255
 39
0.008
  6
CONTINUOUS
 10
2.88776
 20
7.90638
 30
 0
 11
2.88776
 21
7.90638
  0
LINE
  8
Gravur
 62
   255
 39
0.008
  6
CONTINUOUS
 10
2.81134
 20
8.03878
 30
 0
 11
2.81134
 21
8.03878
  0
LINE
  8
Gravur
 62
   255
 39
0.008
  6
CONTINUOUS
 10
2.81134
 20
8.03878
 30
 0
 11
3.03406
 21
8.26150
  0
LINE
  8
Gravur
 62
   255
 39
0.008
  6
CONTINUOUS
 10
2.76047
 20
8.41945
 30
 0
 11
2.67894
 21
8.11520
  0
LINE
  8
Gravur
 62
   255
 39
0.008
  6
CONTINUOUS
 10
2.67894
 20
8.11520
 30
 0
 11
2.67894
 21
8.11520
  0
LINE
  8
Gravur
 62
   255
 39
0.008
  6
CONTINUOUS
 10
2.52614
 20
8.11520
 30
 0
 11
2.52614
 21
8.11520
  0
LINE
  8
Gravur
 62
   255
 39
0.008
  6
CONTINUOUS
 10
2.52614
 20
8.11520
 30
 0
 11
2.44461
 21
8.41945
  0
LINE
  8
Gravur
 62
   255
 39
0.008
  6
CONTINUOUS
 10
2.17102
 20
8.26150
 30
 0
 11
2.39374
 21
8.03878
  0
LINE
  8
Gravur
 62
   255
 39
0.008
  6
CONTINUOUS
 10
2.39374
 20
8.03878
 30
 0
 11
2.39374
 21
8.03878
  0
LINE
  8
Gravur
 62
   255
 39
0.008
  6
CONTINUOUS
 10
2.31732
 20
7.90638
 30
 0
 11
2.31732
 21
7.90638
  0
LINE
  8
Gravur
 62
   255
 39
0.008
  6
CONTINUOUS
 10
2.31732
 20
7.90638
 30
 0
 11
2.01307
 21
7.98791
  0
LINE
  8
Gravur
 62
   255
 39
0.008
  6
CONTINUOUS
 10
2.01307
 20
7.67205
 30
 0
 11
2.31732
 21
7.75358
  0
LINE
  8
Gravur
 62
   255
 39
0.008
  6
CONTINUOUS
 10
2.31732
 20
7.75358
 30
 0
 11
2.31732
 21
7.75358
  0
LINE
  8
Gravur
 62
   255
 39
0.008
  6
CONTINUOUS
 10
2.39374
 20
7.62118
 30
 0
 11
2.39374
 21
7.62118
  0
LINE
  8
Gravur
 62
   255
 39
0.008
  6
CONTINUOUS
 10
2.39374
 20
7.62118
 30
 0
 11
2.17102
 21
7.39846
  0
LINE
  8
Gravur
 62
   255
 39
0.016
  6
CONTINUOUS
 10
2.55331
 20
7.82677
 30
 0
 11
2.65173
 21
7.82677
  0
LINE
  8
Gravur
 62
   255
 39
0.016
  6
CONTINUOUS
 10
2.60252
 20
7.87598
 30
 0
 11
2.60252
 21
7.77756
  0
LINE
  8
Gravur
 62
   255
 39
0.016
  6
CONTINUOUS
 10
2.28756
 20
7.28126
 30
 0
 11
2.45484
 21
7.57102
  0
LINE
  8
Gravur
 62
   255
 39
0.016
  6
CONTINUOUS
 10
2.45484
 20
7.57102
 30
 0
 11
2.45488
 21
7.57102
  0
LINE
  8
Gravur
 62
   255
 39
0.016
  6
CONTINUOUS
 10
2.91748
 20
7.28126
 30
 0
 11
2.75016
 21
7.57102
  0
LINE
  8
Gravur
 62
   255
 39
0.016
  6
CONTINUOUS
 10
2.75016
 20
7.57102
 30
 0
 11
2.75016
 21
7.57102
  0
LINE
  8
Gravur
 62
   255
 39
0.016
  6
CONTINUOUS
 10
2.85823
 20
7.67909
 30
 0
 11
2.85823
 21
7.67909
  0
LINE
  8
Gravur
 62
   255
 39
0.016
  6
CONTINUOUS
 10
2.85823
 20
7.67909
 30
 0
 11
3.14803
 21
7.51177
  0
LINE
  8
Gravur
 62
   255
 39
0.016
  6
CONTINUOUS
 10
3.23244
 20
7.82677
 30
 0
 11
2.89780
 21
7.82677
  0
LINE
  8
Gravur
 62
   255
 39
0.016
  6
CONTINUOUS
 10
2.89780
 20
7.82677
 30
 0
 11
2.89780
 21
7.82677
  0
LINE
  8
Gravur
 62
   255
 39
0.016
  6
CONTINUOUS
 10
2.85823
 20
7.97441
 30
 0
 11
2.85823
 21
7.97441
  0
LINE
  8
Gravur
 62
   255
 39
0.016
  6
CONTINUOUS
 10
2.85823
 20
7.97441
 30
 0
 11
3.14803
 21
8.14173
  0
LINE
  8
Gravur
 62
   255
 39
0.016
  6
CONTINUOUS
 10
2.91744
 20
8.37228
 30
 0
 11
2.75016
 21
8.08248
  0
LINE
  8
Gravur
 62
   255
 39
0.016
  6
CONTINUOUS
 10
2.75016
 20
8.08248
 30
 0
 11
2.75012
 21
8.08248
  0
LINE
  8
Gravur
 62
   255
 39
0.016
  6
CONTINUOUS
 10
2.60252
 20
8.12205
 30
 0
 11
2.60252
 21
8.12205
  0
LINE
  8
Gravur
 62
   255
 39
0.016
  6
CONTINUOUS
 10
2.60252
 20
8.12205
 30
 0
 11
2.60252
 21
8.45669
  0
LINE
  8
Gravur
 62
   255
 39
0.016
  6
CONTINUOUS
 10
2.28756
 20
8.37228
 30
 0
 11
2.45488
 21
8.08248
  0
LINE
  8
Gravur
 62
   255
 39
0.016
  6
CONTINUOUS
 10
2.45488
 20
8.08248
 30
 0
 11
2.45488
 21
8.08248
  0
LINE
  8
Gravur
 62
   255
 39
0.016
  6
CONTINUOUS
 10
2.34677
 20
7.97441
 30
 0
 11
2.34677
 21
7.97441
  0
LINE
  8
Gravur
 62
   255
 39
0.016
  6
CONTINUOUS
 10
2.34677
 20
7.97441
 30
 0
 11
2.05701
 21
8.14169
  0
LINE
  8
Gravur
 62
   255
 39
0.016
  6
CONTINUOUS
 10
1.97260
 20
7.82677
 30
 0
 11
2.30724
 21
7.82677
  0
LINE
  8
Gravur
 62
   255
 39
0.016
  6
CONTINUOUS
 10
2.30724
 20
7.82677
 30
 0
 11
2.30724
 21
7.82677
  0
LINE
  8
Gravur
 62
   255
 39
0.016
  6
CONTINUOUS
 10
2.34677
 20
7.67913
 30
 0
 11
2.34677
 21
7.67913
  0
LINE
  8
Gravur
 62
   255
 39
0.016
  6
CONTINUOUS
 10
2.34677
 20
7.67913
 30
 0
 11
2.05701
 21
7.51181
  0
ARC
  8
Gravur
 62
   255
 39
0.016
  6
CONTINUOUS
 10
0.36205
 20
2.33024
 30
 0
 40
0.02390
 50
2.36235
 51
177.64154
  0
LINE
  8
Gravur
 62
   255
 39
0.016
  6
CONTINUOUS
 10
0.33815
 20
2.33122
 30
 0
 11
0.33815
 21
2.26878
  0
ARC
  8
Gravur
 62
   255
 39
0.016
  6
CONTINUOUS
 10
0.36205
 20
2.26976
 30
 0
 40
0.02394
 50
-177.64154
 51
-2.36235
  0
LINE
  8
Gravur
 62
   255
 39
0.016
  6
CONTINUOUS
 10
0.41713
 20
2.35512
 30
 0
 11
0.44193
 21
2.24488
  0
LINE
  8
Gravur
 62
   255
 39
0.016
  6
CONTINUOUS
 10
0.44193
 20
2.24488
 30
 0
 11
0.46673
 21
2.35512
  0
LINE
  8
Gravur
 62
   255
 39
0.016
  6
CONTINUOUS
 10
0.49705
 20
2.32756
 30
 0
 11
0.52185
 21
2.35512
  0
LINE
  8
Gravur
 62
   255
 39
0.016
  6
CONTINUOUS
 10
0.52185
 20
2.35512
 30
 0
 11
0.52185
 21
2.24488
  0
ARC
  8
Gravur
 62
   255
 39
0.016
  6
CONTINUOUS
 10
1.22591
 20
2.33024
 30
 0
 40
0.02390
 50
2.36235
 51
177.64154
  0
LINE
  8
Gravur
 62
   255
 39
0.016
  6
CONTINUOUS
 10
1.20201
 20
2.33122
 30
 0
 11
1.20201
 21
2.26878
  0
ARC
  8
Gravur
 62
   255
 39
0.016
  6
CONTINUOUS
 10
1.22591
 20
2.26976
 30
 0
 40
0.02394
 50
-177.64154
 51
-2.36235
  0
LINE
  8
Gravur
 62
   255
 39
0.016
  6
CONTINUOUS
 10
1.28098
 20
2.35512
 30
 0
 11
1.30579
 21
2.24488
  0
LINE
  8
Gravur
 62
   255
 39
0.016
  6
CONTINUOUS
 10
1.30579
 20
2.24488
 30
 0
 11
1.33059
 21
2.35512
  0
ARC
  8
Gravur
 62
   255
 39
0.016
  6
CONTINUOUS
 10
1.38358
 20
2.33236
 30
 0
 40
0.02276
 50
91.58564
 51
-174.84145
  0
ARC
  8
Gravur
 62
   255
 39
0.016
  6
CONTINUOUS
 10
1.38409
 20
2.33114
 30
 0
 40
0.02402
 50
330.45305
 51
92.72631
  0
LINE
  8
Gravur
 62
   255
 39
0.016
  6
CONTINUOUS
 10
1.40500
 20
2.31929
 30
 0
 11
1.36091
 21
2.24488
  0
LINE
  8
Gravur
 62
   255
 39
0.016
  6
CONTINUOUS
 10
1.36091
 20
2.24488
 30
 0
 11
1.40776
 21
2.24488
  0
ARC
  8
Gravur
 62
   255
 39
0.016
  6
CONTINUOUS
 10
2.97421
 20
2.26969
 30
 0
 40
0.02480
 50
180.00000
 51
360.00000
  0
LINE
  8
Gravur
 62
   255
 39
0.016
  6
CONTINUOUS
 10
2.99902
 20
2.26969
 30
 0
 11
2.99902
 21
2.33031
  0
ARC
  8
Gravur
 62
   255
 39
0.016
  6
CONTINUOUS
 10
2.97421
 20
2.33031
 30
 0
 40
0.02480
 50
0.00000
 51
180.00000
  0
LINE
  8
Gravur
 62
   255
 39
0.016
  6
CONTINUOUS
 10
2.94941
 20
2.33031
 30
 0
 11
2.94941
 21
2.26969
  0
LINE
  8
Gravur
 62
   255
 39
0.016
  6
CONTINUOUS
 10
3.03024
 20
2.35512
 30
 0
 11
3.03024
 21
2.26969
  0
ARC
  8
Gravur
 62
   255
 39
0.016
  6
CONTINUOUS
 10
3.05504
 20
2.26969
 30
 0
 40
0.02480
 50
180.00000
 51
360.00000
  0
LINE
  8
Gravur
 62
   255
 39
0.016
  6
CONTINUOUS
 10
3.07984
 20
2.26969
 30
 0
 11
3.07984
 21
2.35512
  0
LINE
  8
Gravur
 62
   255
 39
0.016
  6
CONTINUOUS
 10
3.11106
 20
2.35512
 30
 0
 11
3.16067
 21
2.35512
  0
LINE
  8
Gravur
 62
   255
 39
0.016
  6
CONTINUOUS
 10
3.16067
 20
2.35512
 30
 0
 11
3.13587
 21
2.35512
  0
LINE
  8
Gravur
 62
   255
 39
0.016
  6
CONTINUOUS
 10
3.13587
 20
2.35512
 30
 0
 11
3.13587
 21
2.24488
  0
LINE
  8
Gravur
 62
   255
 39
0.016
  6
CONTINUOUS
 10
3.04756
 20
1.65965
 30
 0
 11
3.04756
 21
1.43642
  0
LINE
  8
Gravur
 62
   255
 39
0.016
  6
CONTINUOUS
 10
2.10488
 20
1.35512
 30
 0
 11
2.10488
 21
1.24488
  0
LINE
  8
Gravur
 62
   255
 39
0.016
  6
CONTINUOUS
 10
2.13299
 20
1.24488
 30
 0
 11
2.13299
 21
1.35512
  0
LINE
  8
Gravur
 62
   255
 39
0.016
  6
CONTINUOUS
 10
2.13299
 20
1.35512
 30
 0
 11
2.17764
 21
1.24488
  0
LINE
  8
Gravur
 62
   255
 39
0.016
  6
CONTINUOUS
 10
2.17764
 20
1.24488
 30
 0
 11
2.17764
 21
1.35512
  0
LINE
  8
Gravur
 62
   255
 39
0.016
  6
CONTINUOUS
 10
2.20740
 20
1.33307
 30
 0
 11
2.20783
 21
1.33634
  0
LINE
  8
Gravur
 62
   255
 39
0.016
  6
CONTINUOUS
 10
2.20783
 20
1.33634
 30
 0
 11
2.20866
 21
1.33949
  0
LINE
  8
Gravur
 62
   255
 39
0.016
  6
CONTINUOUS
 10
2.20866
 20
1.33949
 30
 0
 11
2.20992
 21
1.34248
  0
LINE
  8
Gravur
 62
   255
 39
0.016
  6
CONTINUOUS
 10
2.20992
 20
1.34248
 30
 0
 11
2.21154
 21
1.34524
  0
LINE
  8
Gravur
 62
   255
 39
0.016
  6
CONTINUOUS
 10
2.21154
 20
1.34524
 30
 0
 11
2.21350
 21
1.34768
  0
LINE
  8
Gravur
 62
   255
 39
0.016
  6
CONTINUOUS
 10
2.21350
 20
1.34768
 30
 0
 11
2.21579
 21
1.34980
  0
LINE
  8
Gravur
 62
   255
 39
0.016
  6
CONTINUOUS
 10
2.21579
 20
1.34980
 30
 0
 11
2.21831
 21
1.35154
  0
LINE
  8
Gravur
 62
   255
 39
0.016
  6
CONTINUOUS
 10
2.21831
 20
1.35154
 30
 0
 11
2.22102
 21
1.35283
  0
LINE
  8
Gravur
 62
   255
 39
0.016
  6
CONTINUOUS
 10
2.22102
 20
1.35283
 30
 0
 11
2.22390
 21
1.35366
  0
LINE
  8
Gravur
 62
   255
 39
0.016
  6
CONTINUOUS
 10
2.22390
 20
1.35366
 30
 0
 11
2.22685
 21
1.35406
  0
LINE
  8
Gravur
 62
   255
 39
0.016
  6
CONTINUOUS
 10
2.22685
 20
1.35406
 30
 0
 11
2.22980
 21
1.35394
  0
LINE
  8
Gravur
 62
   255
 39
0.016
  6
CONTINUOUS
 10
2.22980
 20
1.35394
 30
 0
 11
2.23272
 21
1.35339
  0
LINE
  8
Gravur
 62
   255
 39
0.016
  6
CONTINUOUS
 10
2.23272
 20
1.35339
 30
 0
 11
2.23299
 21
1.35327
  0
LINE
  8
Gravur
 62
   255
 39
0.016
  6
CONTINUOUS
 10
2.23299
 20
1.35327
 30
 0
 11
2.23610
 21
1.35209
  0
LINE
  8
Gravur
 62
   255
 39
0.016
  6
CONTINUOUS
 10
2.23610
 20
1.35209
 30
 0
 11
2.23902
 21
1.35039
  0
LINE
  8
Gravur
 62
   255
 39
0.016
  6
CONTINUOUS
 10
2.23902
 20
1.35039
 30
 0
 11
2.24161
 21
1.34827
  0
LINE
  8
Gravur
 62
   255
 39
0.016
  6
CONTINUOUS
 10
2.24161
 20
1.34827
 30
 0
 11
2.24398
 21
1.34571
  0
LINE
  8
Gravur
 62
   255
 39
0.016
  6
CONTINUOUS
 10
2.24398
 20
1.34571
 30
 0
 11
2.24591
 21
1.34280
  0
LINE
  8
Gravur
 62
   255
 39
0.016
  6
CONTINUOUS
 10
2.24591
 20
1.34280
 30
 0
 11
2.24748
 21
1.33961
  0
LINE
  8
Gravur
 62
   255
 39
0.016
  6
CONTINUOUS
 10
2.24748
 20
1.33961
 30
 0
 11
2.24858
 21
1.33618
  0
LINE
  8
Gravur
 62
   255
 39
0.016
  6
CONTINUOUS
 10
2.24858
 20
1.33618
 30
 0
 11
2.24921
 21
1.33264
  0
LINE
  8
Gravur
 62
   255
 39
0.016
  6
CONTINUOUS
 10
2.24921
 20
1.33264
 30
 0
 11
2.24933
 21
1.32902
  0
LINE
  8
Gravur
 62
   255
 39
0.016
  6
CONTINUOUS
 10
2.24933
 20
1.32902
 30
 0
 11
2.24902
 21
1.32539
  0
LINE
  8
Gravur
 62
   255
 39
0.016
  6
CONTINUOUS
 10
2.24902
 20
1.32539
 30
 0
 11
2.24823
 21
1.32189
  0
LINE
  8
Gravur
 62
   255
 39
0.016
  6
CONTINUOUS
 10
2.24823
 20
1.32189
 30
 0
 11
2.24693
 21
1.31854
  0
LINE
  8
Gravur
 62
   255
 39
0.016
  6
CONTINUOUS
 10
2.24693
 20
1.31854
 30
 0
 11
2.24524
 21
1.31543
  0
LINE
  8
Gravur
 62
   255
 39
0.016
  6
CONTINUOUS
 10
2.24524
 20
1.31543
 30
 0
 11
2.24311
 21
1.31264
  0
LINE
  8
Gravur
 62
   255
 39
0.016
  6
CONTINUOUS
 10
2.24311
 20
1.31264
 30
 0
 11
2.24067
 21
1.31024
  0
LINE
  8
Gravur
 62
   255
 39
0.016
  6
CONTINUOUS
 10
2.24067
 20
1.31024
 30
 0
 11
2.23795
 21
1.30827
  0
LINE
  8
Gravur
 62
   255
 39
0.016
  6
CONTINUOUS
 10
2.23795
 20
1.30827
 30
 0
 11
2.23496
 21
1.30677
  0
LINE
  8
Gravur
 62
   255
 39
0.016
  6
CONTINUOUS
 10
2.23496
 20
1.30677
 30
 0
 11
2.23181
 21
1.30579
  0
LINE
  8
Gravur
 62
   255
 39
0.016
  6
CONTINUOUS
 10
2.23181
 20
1.30579
 30
 0
 11
2.22858
 21
1.30531
  0
LINE
  8
Gravur
 62
   255
 39
0.016
  6
CONTINUOUS
 10
2.22858
 20
1.30531
 30
 0
 11
2.22528
 21
1.30539
  0
LINE
  8
Gravur
 62
   255
 39
0.016
  6
CONTINUOUS
 10
2.22528
 20
1.30539
 30
 0
 11
2.22476
 21
1.30551
  0
LINE
  8
Gravur
 62
   255
 39
0.016
  6
CONTINUOUS
 10
2.22476
 20
1.30551
 30
 0
 11
2.22878
 21
1.30575
  0
LINE
  8
Gravur
 62
   255
 39
0.016
  6
CONTINUOUS
 10
2.22878
 20
1.30575
 30
 0
 11
2.23283
 21
1.30528
  0
LINE
  8
Gravur
 62
   255
 39
0.016
  6
CONTINUOUS
 10
2.23283
 20
1.30528
 30
 0
 11
2.23677
 21
1.30417
  0
LINE
  8
Gravur
 62
   255
 39
0.016
  6
CONTINUOUS
 10
2.23677
 20
1.30417
 30
 0
 11
2.24047
 21
1.30240
  0
LINE
  8
Gravur
 62
   255
 39
0.016
  6
CONTINUOUS
 10
2.24047
 20
1.30240
 30
 0
 11
2.24394
 21
1.30004
  0
LINE
  8
Gravur
 62
   255
 39
0.016
  6
CONTINUOUS
 10
2.24394
 20
1.30004
 30
 0
 11
2.24705
 21
1.29717
  0
LINE
  8
Gravur
 62
   255
 39
0.016
  6
CONTINUOUS
 10
2.24705
 20
1.29717
 30
 0
 11
2.24969
 21
1.29378
  0
LINE
  8
Gravur
 62
   255
 39
0.016
  6
CONTINUOUS
 10
2.24969
 20
1.29378
 30
 0
 11
2.25189
 21
1.28996
  0
LINE
  8
Gravur
 62
   255
 39
0.016
  6
CONTINUOUS
 10
2.25189
 20
1.28996
 30
 0
 11
2.25354
 21
1.28587
  0
LINE
  8
Gravur
 62
   255
 39
0.016
  6
CONTINUOUS
 10
2.25354
 20
1.28587
 30
 0
 11
2.25461
 21
1.28154
  0
LINE
  8
Gravur
 62
   255
 39
0.016
  6
CONTINUOUS
 10
2.25461
 20
1.28154
 30
 0
 11
2.25512
 21
1.27709
  0
LINE
  8
Gravur
 62
   255
 39
0.016
  6
CONTINUOUS
 10
2.25512
 20
1.27709
 30
 0
 11
2.25500
 21
1.27256
  0
LINE
  8
Gravur
 62
   255
 39
0.016
  6
CONTINUOUS
 10
2.25500
 20
1.27256
 30
 0
 11
2.25425
 21
1.26815
  0
LINE
  8
Gravur
 62
   255
 39
0.016
  6
CONTINUOUS
 10
2.25425
 20
1.26815
 30
 0
 11
2.25299
 21
1.26390
  0
LINE
  8
Gravur
 62
   255
 39
0.016
  6
CONTINUOUS
 10
2.25299
 20
1.26390
 30
 0
 11
2.25110
 21
1.25988
  0
LINE
  8
Gravur
 62
   255
 39
0.016
  6
CONTINUOUS
 10
2.25110
 20
1.25988
 30
 0
 11
2.24874
 21
1.25626
  0
LINE
  8
Gravur
 62
   255
 39
0.016
  6
CONTINUOUS
 10
2.24874
 20
1.25626
 30
 0
 11
2.24591
 21
1.25303
  0
LINE
  8
Gravur
 62
   255
 39
0.016
  6
CONTINUOUS
 10
2.24591
 20
1.25303
 30
 0
 11
2.24264
 21
1.25031
  0
LINE
  8
Gravur
 62
   255
 39
0.016
  6
CONTINUOUS
 10
2.24264
 20
1.25031
 30
 0
 11
2.23909
 21
1.24819
  0
LINE
  8
Gravur
 62
   255
 39
0.016
  6
CONTINUOUS
 10
2.23909
 20
1.24819
 30
 0
 11
2.23547
 21
1.24673
  0
LINE
  8
Gravur
 62
   255
 39
0.016
  6
CONTINUOUS
 10
2.23547
 20
1.24673
 30
 0
 11
2.23209
 21
1.24591
  0
LINE
  8
Gravur
 62
   255
 39
0.016
  6
CONTINUOUS
 10
2.23209
 20
1.24591
 30
 0
 11
2.22862
 21
1.24563
  0
LINE
  8
Gravur
 62
   255
 39
0.016
  6
CONTINUOUS
 10
2.22862
 20
1.24563
 30
 0
 11
2.22516
 21
1.24591
  0
LINE
  8
Gravur
 62
   255
 39
0.016
  6
CONTINUOUS
 10
2.22516
 20
1.24591
 30
 0
 11
2.22177
 21
1.24677
  0
LINE
  8
Gravur
 62
   255
 39
0.016
  6
CONTINUOUS
 10
2.22177
 20
1.24677
 30
 0
 11
2.21850
 21
1.24815
  0
LINE
  8
Gravur
 62
   255
 39
0.016
  6
CONTINUOUS
 10
2.21850
 20
1.24815
 30
 0
 11
2.21551
 21
1.25004
  0
LINE
  8
Gravur
 62
   255
 39
0.016
  6
CONTINUOUS
 10
2.21551
 20
1.25004
 30
 0
 11
2.21276
 21
1.25240
  0
LINE
  8
Gravur
 62
   255
 39
0.016
  6
CONTINUOUS
 10
2.21276
 20
1.25240
 30
 0
 11
2.21031
 21
1.25520
  0
LINE
  8
Gravur
 62
   255
 39
0.016
  6
CONTINUOUS
 10
2.21031
 20
1.25520
 30
 0
 11
2.20831
 21
1.25835
  0
LINE
  8
Gravur
 62
   255
 39
0.016
  6
CONTINUOUS
 10
2.20831
 20
1.25835
 30
 0
 11
2.20673
 21
1.26177
  0
LINE
  8
Gravur
 62
   255
 39
0.016
  6
CONTINUOUS
 10
2.20673
 20
1.26177
 30
 0
 11
2.20559
 21
1.26543
  0
LINE
  8
Gravur
 62
   255
 39
0.016
  6
CONTINUOUS
 10
2.20559
 20
1.26543
 30
 0
 11
2.20496
 21
1.26921
  0
LINE
  8
Gravur
 62
   255
 39
0.016
  6
CONTINUOUS
 10
2.20496
 20
1.26921
 30
 0
 11
2.20492
 21
1.26969
  0
LINE
  8
Gravur
 62
   255
 39
0.016
  6
CONTINUOUS
 10
1.75689
 20
3.12150
 30
 0
 11
1.75689
 21
3.03488
  0
LINE
  8
Gravur
 62
   255
 39
0.016
  6
CONTINUOUS
 10
1.75689
 20
3.07819
 30
 0
 11
1.79587
 21
3.07819
  0
LINE
  8
Gravur
 62
   255
 39
0.016
  6
CONTINUOUS
 10
1.79587
 20
3.03488
 30
 0
 11
1.79587
 21
3.12150
  0
LINE
  8
Gravur
 62
   255
 39
0.016
  6
CONTINUOUS
 10
1.81969
 20
3.07819
 30
 0
 11
1.83917
 21
3.07819
  0
ARC
  8
Gravur
 62
   255
 39
0.016
  6
CONTINUOUS
 10
1.83917
 20
3.09984
 30
 0
 40
0.02165
 50
-90.00000
 51
90.00000
  0
LINE
  8
Gravur
 62
   255
 39
0.016
  6
CONTINUOUS
 10
1.83917
 20
3.12150
 30
 0
 11
1.81969
 21
3.12150
  0
LINE
  8
Gravur
 62
   255
 39
0.016
  6
CONTINUOUS
 10
1.81969
 20
3.12150
 30
 0
 11
1.81969
 21
3.03488
  0
ARC
  8
Gravur
 62
   255
 39
0.016
  6
CONTINUOUS
 10
1.97173
 20
3.10362
 30
 0
 40
0.01787
 50
91.51407
 51
-174.81700
  0
ARC
  8
Gravur
 62
   255
 39
0.016
  6
CONTINUOUS
 10
1.97217
 20
3.10268
 30
 0
 40
0.01886
 50
330.38847
 51
92.75479
  0
LINE
  8
Gravur
 62
   255
 39
0.016
  6
CONTINUOUS
 10
1.98858
 20
3.09335
 30
 0
 11
1.95394
 21
3.03488
  0
LINE
  8
Gravur
 62
   255
 39
0.016
  6
CONTINUOUS
 10
1.95394
 20
3.03488
 30
 0
 11
1.99075
 21
3.03488
  0
LINE
  8
Gravur
 62
   255
 39
0.016
  6
CONTINUOUS
 10
1.85150
 20
3.48650
 30
 0
 11
1.85150
 21
3.39988
  0
LINE
  8
Gravur
 62
   255
 39
0.016
  6
CONTINUOUS
 10
1.85150
 20
3.44319
 30
 0
 11
1.89047
 21
3.44319
  0
LINE
  8
Gravur
 62
   255
 39
0.016
  6
CONTINUOUS
 10
1.89047
 20
3.39988
 30
 0
 11
1.89047
 21
3.48650
  0
LINE
  8
Gravur
 62
   255
 39
0.016
  6
CONTINUOUS
 10
1.91429
 20
3.44319
 30
 0
 11
1.93378
 21
3.44319
  0
ARC
  8
Gravur
 62
   255
 39
0.016
  6
CONTINUOUS
 10
1.93378
 20
3.46484
 30
 0
 40
0.02165
 50
-90.00000
 51
90.00000
  0
LINE
  8
Gravur
 62
   255
 39
0.016
  6
CONTINUOUS
 10
1.93378
 20
3.48650
 30
 0
 11
1.91429
 21
3.48650
  0
LINE
  8
Gravur
 62
   255
 39
0.016
  6
CONTINUOUS
 10
1.91429
 20
3.48650
 30
 0
 11
1.91429
 21
3.39988
  0
ARC
  8
Gravur
 62
   255
 39
0.016
  6
CONTINUOUS
 10
2.06843
 20
3.46791
 30
 0
 40
0.01776
 50
434.82293
 51
175.93248
  0
ARC
  8
Gravur
 62
   255
 39
0.016
  6
CONTINUOUS
 10
2.06783
 20
3.46657
 30
 0
 40
0.01917
 50
264.10194
 51
74.16761
  0
ARC
  8
Gravur
 62
   255
 39
0.016
  6
CONTINUOUS
 10
2.06843
 20
3.42402
 30
 0
 40
0.02366
 50
286.71749
 51
96.21376
  0
ARC
  8
Gravur
 62
   255
 39
0.016
  6
CONTINUOUS
 10
2.06933
 20
3.42134
 30
 0
 40
0.02087
 50
185.40960
 51
-73.54942
  0
LINE
  8
Gravur
 62
   255
 39
0.016
  6
CONTINUOUS
 10
1.86350
 20
2.75650
 30
 0
 11
1.86350
 21
2.66988
  0
LINE
  8
Gravur
 62
   255
 39
0.016
  6
CONTINUOUS
 10
1.86350
 20
2.71319
 30
 0
 11
1.90248
 21
2.71319
  0
LINE
  8
Gravur
 62
   255
 39
0.016
  6
CONTINUOUS
 10
1.90248
 20
2.66988
 30
 0
 11
1.90248
 21
2.75650
  0
LINE
  8
Gravur
 62
   255
 39
0.016
  6
CONTINUOUS
 10
1.92630
 20
2.71319
 30
 0
 11
1.94579
 21
2.71319
  0
ARC
  8
Gravur
 62
   255
 39
0.016
  6
CONTINUOUS
 10
1.94579
 20
2.73484
 30
 0
 40
0.02165
 50
-90.00000
 51
90.00000
  0
LINE
  8
Gravur
 62
   255
 39
0.016
  6
CONTINUOUS
 10
1.94579
 20
2.75650
 30
 0
 11
1.92630
 21
2.75650
  0
LINE
  8
Gravur
 62
   255
 39
0.016
  6
CONTINUOUS
 10
1.92630
 20
2.75650
 30
 0
 11
1.92630
 21
2.66988
  0
LINE
  8
Gravur
 62
   255
 39
0.016
  6
CONTINUOUS
 10
2.06055
 20
2.73484
 30
 0
 11
2.08004
 21
2.75650
  0
LINE
  8
Gravur
 62
   255
 39
0.016
  6
CONTINUOUS
 10
2.08004
 20
2.75650
 30
 0
 11
2.08004
 21
2.66988
  0
ARC
  8
Gravur
 62
   255
 39
0.016
  6
CONTINUOUS
 10
2.17980
 20
2.42217
 30
 0
 40
0.01949
 50
180.00000
 51
360.00000
  0
LINE
  8
Gravur
 62
   255
 39
0.016
  6
CONTINUOUS
 10
2.19929
 20
2.42217
 30
 0
 11
2.19929
 21
2.46980
  0
ARC
  8
Gravur
 62
   255
 39
0.016
  6
CONTINUOUS
 10
2.17980
 20
2.46980
 30
 0
 40
0.01949
 50
0.00000
 51
180.00000
  0
LINE
  8
Gravur
 62
   255
 39
0.016
  6
CONTINUOUS
 10
2.16031
 20
2.46980
 30
 0
 11
2.16031
 21
2.42217
  0
LINE
  8
Gravur
 62
   255
 39
0.016
  6
CONTINUOUS
 10
2.25846
 20
2.48929
 30
 0
 11
2.22382
 21
2.48929
  0
LINE
  8
Gravur
 62
   255
 39
0.016
  6
CONTINUOUS
 10
2.22382
 20
2.48929
 30
 0
 11
2.22382
 21
2.40268
  0
LINE
  8
Gravur
 62
   255
 39
0.016
  6
CONTINUOUS
 10
2.22382
 20
2.40268
 30
 0
 11
2.22382
 21
2.44598
  0
LINE
  8
Gravur
 62
   255
 39
0.016
  6
CONTINUOUS
 10
2.22382
 20
2.44598
 30
 0
 11
2.24547
 21
2.44598
  0
LINE
  8
Gravur
 62
   255
 39
0.016
  6
CONTINUOUS
 10
2.31764
 20
2.48929
 30
 0
 11
2.28299
 21
2.48929
  0
LINE
  8
Gravur
 62
   255
 39
0.016
  6
CONTINUOUS
 10
2.28299
 20
2.48929
 30
 0
 11
2.28299
 21
2.40268
  0
LINE
  8
Gravur
 62
   255
 39
0.016
  6
CONTINUOUS
 10
2.28299
 20
2.40268
 30
 0
 11
2.28299
 21
2.44598
  0
LINE
  8
Gravur
 62
   255
 39
0.016
  6
CONTINUOUS
 10
2.28299
 20
2.44598
 30
 0
 11
2.30465
 21
2.44598
  0
LINE
  8
Gravur
 62
   255
 39
0.016
  6
CONTINUOUS
 10
0.77705
 20
3.86024
 30
 0
 11
0.77705
 21
3.75000
  0
LINE
  8
Gravur
 62
   255
 39
0.016
  6
CONTINUOUS
 10
0.80516
 20
3.75000
 30
 0
 11
0.80516
 21
3.86024
  0
LINE
  8
Gravur
 62
   255
 39
0.016
  6
CONTINUOUS
 10
0.80516
 20
3.86024
 30
 0
 11
0.84980
 21
3.75000
  0
LINE
  8
Gravur
 62
   255
 39
0.016
  6
CONTINUOUS
 10
0.84980
 20
3.75000
 30
 0
 11
0.84980
 21
3.86024
  0
LINE
  8
Gravur
 62
   255
 39
0.016
  6
CONTINUOUS
 10
0.95646
 20
3.83543
 30
 0
 11
0.95642
 21
3.83874
  0
LINE
  8
Gravur
 62
   255
 39
0.016
  6
CONTINUOUS
 10
0.95642
 20
3.83874
 30
 0
 11
0.95677
 21
3.84201
  0
LINE
  8
Gravur
 62
   255
 39
0.016
  6
CONTINUOUS
 10
0.95677
 20
3.84201
 30
 0
 11
0.95760
 21
3.84520
  0
LINE
  8
Gravur
 62
   255
 39
0.016
  6
CONTINUOUS
 10
0.95760
 20
3.84520
 30
 0
 11
0.95878
 21
3.84823
  0
LINE
  8
Gravur
 62
   255
 39
0.016
  6
CONTINUOUS
 10
0.95878
 20
3.84823
 30
 0
 11
0.96039
 21
3.85102
  0
LINE
  8
Gravur
 62
   255
 39
0.016
  6
CONTINUOUS
 10
0.96039
 20
3.85102
 30
 0
 11
0.96232
 21
3.85350
  0
LINE
  8
Gravur
 62
   255
 39
0.016
  6
CONTINUOUS
 10
0.96232
 20
3.85350
 30
 0
 11
0.96457
 21
3.85571
  0
LINE
  8
Gravur
 62
   255
 39
0.016
  6
CONTINUOUS
 10
0.96457
 20
3.85571
 30
 0
 11
0.96709
 21
3.85748
  0
LINE
  8
Gravur
 62
   255
 39
0.016
  6
CONTINUOUS
 10
0.96709
 20
3.85748
 30
 0
 11
0.96976
 21
3.85886
  0
LINE
  8
Gravur
 62
   255
 39
0.016
  6
CONTINUOUS
 10
0.96976
 20
3.85886
 30
 0
 11
0.97264
 21
3.85976
  0
LINE
  8
Gravur
 62
   255
 39
0.016
  6
CONTINUOUS
 10
0.97264
 20
3.85976
 30
 0
 11
0.97559
 21
3.86020
  0
LINE
  8
Gravur
 62
   255
 39
0.016
  6
CONTINUOUS
 10
0.97559
 20
3.86020
 30
 0
 11
0.97630
 21
3.86024
  0
LINE
  8
Gravur
 62
   255
 39
0.016
  6
CONTINUOUS
 10
0.97630
 20
3.86024
 30
 0
 11
0.97949
 21
3.86016
  0
LINE
  8
Gravur
 62
   255
 39
0.016
  6
CONTINUOUS
 10
0.97949
 20
3.86016
 30
 0
 11
0.98264
 21
3.85953
  0
LINE
  8
Gravur
 62
   255
 39
0.016
  6
CONTINUOUS
 10
0.98264
 20
3.85953
 30
 0
 11
0.98567
 21
3.85839
  0
LINE
  8
Gravur
 62
   255
 39
0.016
  6
CONTINUOUS
 10
0.98567
 20
3.85839
 30
 0
 11
0.98850
 21
3.85677
  0
LINE
  8
Gravur
 62
   255
 39
0.016
  6
CONTINUOUS
 10
0.98850
 20
3.85677
 30
 0
 11
0.99114
 21
3.85472
  0
LINE
  8
Gravur
 62
   255
 39
0.016
  6
CONTINUOUS
 10
0.99114
 20
3.85472
 30
 0
 11
0.99343
 21
3.85224
  0
LINE
  8
Gravur
 62
   255
 39
0.016
  6
CONTINUOUS
 10
0.99343
 20
3.85224
 30
 0
 11
0.99539
 21
3.84945
  0
LINE
  8
Gravur
 62
   255
 39
0.016
  6
CONTINUOUS
 10
0.99539
 20
3.84945
 30
 0
 11
0.99693
 21
3.84634
  0
LINE
  8
Gravur
 62
   255
 39
0.016
  6
CONTINUOUS
 10
0.99693
 20
3.84634
 30
 0
 11
0.99803
 21
3.84299
  0
LINE
  8
Gravur
 62
   255
 39
0.016
  6
CONTINUOUS
 10
0.99803
 20
3.84299
 30
 0
 11
0.99874
 21
3.83953
  0
LINE
  8
Gravur
 62
   255
 39
0.016
  6
CONTINUOUS
 10
0.99874
 20
3.83953
 30
 0
 11
0.99894
 21
3.83598
  0
LINE
  8
Gravur
 62
   255
 39
0.016
  6
CONTINUOUS
 10
0.99894
 20
3.83598
 30
 0
 11
0.99866
 21
3.83244
  0
LINE
  8
Gravur
 62
   255
 39
0.016
  6
CONTINUOUS
 10
0.99866
 20
3.83244
 30
 0
 11
0.99791
 21
3.82898
  0
LINE
  8
Gravur
 62
   255
 39
0.016
  6
CONTINUOUS
 10
0.99791
 20
3.82898
 30
 0
 11
0.99669
 21
3.82567
  0
LINE
  8
Gravur
 62
   255
 39
0.016
  6
CONTINUOUS
 10
0.99669
 20
3.82567
 30
 0
 11
0.99614
 21
3.82441
  0
LINE
  8
Gravur
 62
   255
 39
0.016
  6
CONTINUOUS
 10
0.99614
 20
3.82441
 30
 0
 11
0.95646
 21
3.75000
  0
LINE
  8
Gravur
 62
   255
 39
0.016
  6
CONTINUOUS
 10
0.95646
 20
3.75000
 30
 0
 11
0.99862
 21
3.75000
  0
ARC
  8
Gravur
 62
   255
 39
0.008
  6
CONTINUOUS
 10
0.15795
 20
3.10594
 30
 0
 40
0.01949
 50
91.50439
 51
-174.78461
  0
ARC
  8
Gravur
 62
   255
 39
0.008
  6
CONTINUOUS
 10
0.15843
 20
3.10488
 30
 0
 40
0.02059
 50
330.44533
 51
92.74196
  0
LINE
  8
Gravur
 62
   255
 39
0.008
  6
CONTINUOUS
 10
0.17634
 20
3.09472
 30
 0
 11
0.13854
 21
3.03094
  0
LINE
  8
Gravur
 62
   255
 39
0.008
  6
CONTINUOUS
 10
0.13854
 20
3.03094
 30
 0
 11
0.17870
 21
3.03094
  0
ARC
  8
Gravur
 62
   255
 39
0.008
  6
CONTINUOUS
 10
0.25429
 20
3.47016
 30
 0
 40
0.01937
 50
434.80614
 51
175.92268
  0
ARC
  8
Gravur
 62
   255
 39
0.008
  6
CONTINUOUS
 10
0.25390
 20
3.46866
 30
 0
 40
0.02091
 50
263.39742
 51
74.83943
  0
ARC
  8
Gravur
 62
   255
 39
0.008
  6
CONTINUOUS
 10
0.25469
 20
3.42232
 30
 0
 40
0.02579
 50
285.86128
 51
97.10332
  0
ARC
  8
Gravur
 62
   255
 39
0.008
  6
CONTINUOUS
 10
0.25524
 20
3.41933
 30
 0
 40
0.02276
 50
185.36509
 51
-73.41468
  0
LINE
  8
Gravur
 62
   255
 39
0.008
  6
CONTINUOUS
 10
0.53437
 20
3.75764
 30
 0
 11
0.50366
 21
3.68677
  0
LINE
  8
Gravur
 62
   255
 39
0.008
  6
CONTINUOUS
 10
0.50366
 20
3.68677
 30
 0
 11
0.54382
 21
3.68677
  0
LINE
  8
Gravur
 62
   255
 39
0.008
  6
CONTINUOUS
 10
0.53437
 20
3.71039
 30
 0
 11
0.53437
 21
3.66315
  0
LINE
  8
Gravur
 62
   255
 39
0.008
  6
CONTINUOUS
 10
0.24591
 20
2.73681
 30
 0
 11
0.26717
 21
2.76043
  0
LINE
  8
Gravur
 62
   255
 39
0.008
  6
CONTINUOUS
 10
0.26717
 20
2.76043
 30
 0
 11
0.26717
 21
2.66594
  0
ARC
  8
Gravur
 62
   255
 39
0.008
  6
CONTINUOUS
 10
0.52374
 20
2.42000
 30
 0
 40
0.02126
 50
180.00000
 51
360.00000
  0
LINE
  8
Gravur
 62
   255
 39
0.008
  6
CONTINUOUS
 10
0.54500
 20
2.42000
 30
 0
 11
0.54500
 21
2.47197
  0
ARC
  8
Gravur
 62
   255
 39
0.008
  6
CONTINUOUS
 10
0.52374
 20
2.47197
 30
 0
 40
0.02126
 50
0.00000
 51
180.00000
  0
LINE
  8
Gravur
 62
   255
 39
0.008
  6
CONTINUOUS
 10
0.50248
 20
2.47197
 30
 0
 11
0.50248
 21
2.42000
  0
LINE
  8
Gravur
 62
   255
 39
0.008
  6
CONTINUOUS
 10
1.20846
 20
2.46961
 30
 0
 11
1.22972
 21
2.49323
  0
LINE
  8
Gravur
 62
   255
 39
0.008
  6
CONTINUOUS
 10
1.22972
 20
2.49323
 30
 0
 11
1.22972
 21
2.39874
  0
ARC
  8
Gravur
 62
   255
 39
0.008
  6
CONTINUOUS
 10
1.27776
 20
2.42000
 30
 0
 40
0.02126
 50
180.00000
 51
360.00000
  0
LINE
  8
Gravur
 62
   255
 39
0.008
  6
CONTINUOUS
 10
1.29902
 20
2.42000
 30
 0
 11
1.29902
 21
2.47197
  0
ARC
  8
Gravur
 62
   255
 39
0.008
  6
CONTINUOUS
 10
1.27776
 20
2.47197
 30
 0
 40
0.02126
 50
0.00000
 51
180.00000
  0
LINE
  8
Gravur
 62
   255
 39
0.008
  6
CONTINUOUS
 10
1.25650
 20
2.47197
 30
 0
 11
1.25650
 21
2.42000
  0
ARC
  8
Gravur
 62
   255
 39
0.008
  6
CONTINUOUS
 10
1.52291
 20
2.68673
 30
 0
 40
0.02087
 50
178.70296
 51
264.59040
  0
ARC
  8
Gravur
 62
   255
 39
0.008
  6
CONTINUOUS
 10
1.52024
 20
2.68555
 30
 0
 40
0.01961
 50
-87.92997
 51
-2.07003
  0
LINE
  8
Gravur
 62
   255
 39
0.008
  6
CONTINUOUS
 10
1.53984
 20
2.68484
 30
 0
 11
1.53984
 21
2.74154
  0
ARC
  8
Gravur
 62
   255
 39
0.008
  6
CONTINUOUS
 10
1.52094
 20
2.74154
 30
 0
 40
0.01890
 50
0.00000
 51
180.00000
  0
LINE
  8
Gravur
 62
   255
 39
0.008
  6
CONTINUOUS
 10
1.50205
 20
2.74154
 30
 0
 11
1.50205
 21
2.72736
  0
ARC
  8
Gravur
 62
   255
 39
0.008
  6
CONTINUOUS
 10
1.52154
 20
2.72961
 30
 0
 40
0.01961
 50
-173.43124
 51
-20.83908
  0
ARC
  8
Gravur
 62
   255
 39
0.008
  6
CONTINUOUS
 10
1.61886
 20
3.05130
 30
 0
 40
0.02035
 50
-90.33247
 51
0.33247
  0
LINE
  8
Gravur
 62
   255
 39
0.008
  6
CONTINUOUS
 10
1.63921
 20
3.05142
 30
 0
 11
1.63921
 21
3.05850
  0
ARC
  8
Gravur
 62
   255
 39
0.008
  6
CONTINUOUS
 10
1.61925
 20
3.05823
 30
 0
 40
0.01996
 50
0.79102
 51
91.46880
  0
ARC
  8
Gravur
 62
   255
 39
0.008
  6
CONTINUOUS
 10
1.61886
 20
3.09697
 30
 0
 40
0.01878
 50
-90.36035
 51
0.36035
  0
LINE
  8
Gravur
 62
   255
 39
0.008
  6
CONTINUOUS
 10
1.63764
 20
3.09709
 30
 0
 11
1.63764
 21
3.10654
  0
ARC
  8
Gravur
 62
   255
 39
0.008
  6
CONTINUOUS
 10
1.61874
 20
3.10654
 30
 0
 40
0.01890
 50
0.00000
 51
180.00000
  0
LINE
  8
Gravur
 62
   255
 39
0.008
  6
CONTINUOUS
 10
1.59984
 20
3.10654
 30
 0
 11
1.59984
 21
3.09709
  0
ARC
  8
Gravur
 62
   255
 39
0.008
  6
CONTINUOUS
 10
1.61862
 20
3.09697
 30
 0
 40
0.01878
 50
179.63965
 51
270.36035
  0
ARC
  8
Gravur
 62
   255
 39
0.008
  6
CONTINUOUS
 10
1.61823
 20
3.05823
 30
 0
 40
0.01996
 50
88.53120
 51
179.20898
  0
LINE
  8
Gravur
 62
   255
 39
0.008
  6
CONTINUOUS
 10
1.59827
 20
3.05850
 30
 0
 11
1.59827
 21
3.05142
  0
ARC
  8
Gravur
 62
   255
 39
0.008
  6
CONTINUOUS
 10
1.61862
 20
3.05130
 30
 0
 40
0.02035
 50
179.66753
 51
270.33247
  0
LINE
  8
Gravur
 62
   255
 39
0.008
  6
CONTINUOUS
 10
1.50087
 20
3.47390
 30
 0
 11
1.50087
 21
3.49043
  0
LINE
  8
Gravur
 62
   255
 39
0.008
  6
CONTINUOUS
 10
1.50087
 20
3.49043
 30
 0
 11
1.54102
 21
3.49043
  0
LINE
  8
Gravur
 62
   255
 39
0.008
  6
CONTINUOUS
 10
1.54102
 20
3.49043
 30
 0
 11
1.51031
 21
3.39594
  0
ARC
  8
Gravur
 62
   255
 39
0.008
  6
CONTINUOUS
 10
1.25299
 20
3.73685
 30
 0
 40
0.02087
 50
-1.29704
 51
84.59040
  0
ARC
  8
Gravur
 62
   255
 39
0.008
  6
CONTINUOUS
 10
1.25319
 20
3.73823
 30
 0
 40
0.01949
 50
84.78461
 51
178.49561
  0
LINE
  8
Gravur
 62
   255
 39
0.008
  6
CONTINUOUS
 10
1.23370
 20
3.73874
 30
 0
 11
1.23370
 21
3.68205
  0
ARC
  8
Gravur
 62
   255
 39
0.008
  6
CONTINUOUS
 10
1.25480
 20
3.68425
 30
 0
 40
0.02122
 50
-174.03551
 51
-95.96449
  0
ARC
  8
Gravur
 62
   255
 39
0.008
  6
CONTINUOUS
 10
1.25307
 20
3.68402
 30
 0
 40
0.02087
 50
-91.29704
 51
-5.40960
  0
LINE
  8
Gravur
 62
   255
 39
0.008
  6
CONTINUOUS
 10
1.27386
 20
3.68205
 30
 0
 11
1.27386
 21
3.70094
  0
ARC
  8
Gravur
 62
   255
 39
0.008
  6
CONTINUOUS
 10
1.25272
 20
3.69854
 30
 0
 40
0.02126
 50
6.48068
 51
153.48242
  0
LINE
  8
Gravur
 62
   255
 39
0.016
  6
CONTINUOUS
 10
0.83878
 20
3.07791
 30
 0
 11
0.93720
 21
3.07791
  0
LINE
  8
Gravur
 62
   255
 39
0.016
  6
CONTINUOUS
 10
0.88799
 20
3.12713
 30
 0
 11
0.88799
 21
3.02870
  0
LINE
  8
Gravur
 62
   255
 39
0.016
  6
CONTINUOUS
 10
0.57303
 20
2.53240
 30
 0
 11
0.74031
 21
2.82217
  0
LINE
  8
Gravur
 62
   255
 39
0.016
  6
CONTINUOUS
 10
0.74031
 20
2.82217
 30
 0
 11
0.74035
 21
2.82217
  0
LINE
  8
Gravur
 62
   255
 39
0.016
  6
CONTINUOUS
 10
1.20295
 20
2.53240
 30
 0
 11
1.03563
 21
2.82217
  0
LINE
  8
Gravur
 62
   255
 39
0.016
  6
CONTINUOUS
 10
1.03563
 20
2.82217
 30
 0
 11
1.03563
 21
2.82217
  0
LINE
  8
Gravur
 62
   255
 39
0.016
  6
CONTINUOUS
 10
1.14370
 20
2.93024
 30
 0
 11
1.14370
 21
2.93024
  0
LINE
  8
Gravur
 62
   255
 39
0.016
  6
CONTINUOUS
 10
1.14370
 20
2.93024
 30
 0
 11
1.43350
 21
2.76291
  0
LINE
  8
Gravur
 62
   255
 39
0.016
  6
CONTINUOUS
 10
1.51791
 20
3.07791
 30
 0
 11
1.18327
 21
3.07791
  0
LINE
  8
Gravur
 62
   255
 39
0.016
  6
CONTINUOUS
 10
1.18327
 20
3.07791
 30
 0
 11
1.18327
 21
3.07791
  0
LINE
  8
Gravur
 62
   255
 39
0.016
  6
CONTINUOUS
 10
1.14370
 20
3.22555
 30
 0
 11
1.14370
 21
3.22555
  0
LINE
  8
Gravur
 62
   255
 39
0.016
  6
CONTINUOUS
 10
1.14370
 20
3.22555
 30
 0
 11
1.43350
 21
3.39287
  0
LINE
  8
Gravur
 62
   255
 39
0.016
  6
CONTINUOUS
 10
1.20291
 20
3.62343
 30
 0
 11
1.03563
 21
3.33362
  0
LINE
  8
Gravur
 62
   255
 39
0.016
  6
CONTINUOUS
 10
1.03563
 20
3.33362
 30
 0
 11
1.03559
 21
3.33362
  0
LINE
  8
Gravur
 62
   255
 39
0.016
  6
CONTINUOUS
 10
0.88799
 20
3.37319
 30
 0
 11
0.88799
 21
3.37319
  0
LINE
  8
Gravur
 62
   255
 39
0.016
  6
CONTINUOUS
 10
0.88799
 20
3.37319
 30
 0
 11
0.88799
 21
3.70783
  0
LINE
  8
Gravur
 62
   255
 39
0.016
  6
CONTINUOUS
 10
0.57303
 20
3.62343
 30
 0
 11
0.74035
 21
3.33362
  0
LINE
  8
Gravur
 62
   255
 39
0.016
  6
CONTINUOUS
 10
0.74035
 20
3.33362
 30
 0
 11
0.74035
 21
3.33362
  0
LINE
  8
Gravur
 62
   255
 39
0.016
  6
CONTINUOUS
 10
0.63224
 20
3.22555
 30
 0
 11
0.63224
 21
3.22555
  0
LINE
  8
Gravur
 62
   255
 39
0.016
  6
CONTINUOUS
 10
0.63224
 20
3.22555
 30
 0
 11
0.34248
 21
3.39283
  0
LINE
  8
Gravur
 62
   255
 39
0.016
  6
CONTINUOUS
 10
0.25807
 20
3.07791
 30
 0
 11
0.59272
 21
3.07791
  0
LINE
  8
Gravur
 62
   255
 39
0.016
  6
CONTINUOUS
 10
0.59272
 20
3.07791
 30
 0
 11
0.59272
 21
3.07791
  0
LINE
  8
Gravur
 62
   255
 39
0.016
  6
CONTINUOUS
 10
0.63224
 20
2.93028
 30
 0
 11
0.63224
 21
2.93028
  0
LINE
  8
Gravur
 62
   255
 39
0.016
  6
CONTINUOUS
 10
0.63224
 20
2.93028
 30
 0
 11
0.34248
 21
2.76295
  0
LINE
  8
Gravur
 62
   255
 39
0.008
  6
CONTINUOUS
 10
0.83882
 20
3.08118
 30
 0
 11
0.93724
 21
3.08118
  0
LINE
  8
Gravur
 62
   255
 39
0.008
  6
CONTINUOUS
 10
0.88803
 20
3.13039
 30
 0
 11
0.88803
 21
3.03197
  0
LINE
  8
Gravur
 62
   255
 39
0.008
  6
CONTINUOUS
 10
1.31953
 20
2.64965
 30
 0
 11
1.09681
 21
2.87236
  0
LINE
  8
Gravur
 62
   255
 39
0.008
  6
CONTINUOUS
 10
1.09681
 20
2.87236
 30
 0
 11
1.09681
 21
2.87236
  0
LINE
  8
Gravur
 62
   255
 39
0.008
  6
CONTINUOUS
 10
1.17323
 20
3.00476
 30
 0
 11
1.17323
 21
3.00476
  0
LINE
  8
Gravur
 62
   255
 39
0.008
  6
CONTINUOUS
 10
1.17323
 20
3.00476
 30
 0
 11
1.47748
 21
2.92323
  0
LINE
  8
Gravur
 62
   255
 39
0.008
  6
CONTINUOUS
 10
1.47748
 20
3.23909
 30
 0
 11
1.17323
 21
3.15756
  0
LINE
  8
Gravur
 62
   255
 39
0.008
  6
CONTINUOUS
 10
1.17323
 20
3.15756
 30
 0
 11
1.17323
 21
3.15756
  0
LINE
  8
Gravur
 62
   255
 39
0.008
  6
CONTINUOUS
 10
1.09681
 20
3.28996
 30
 0
 11
1.09681
 21
3.28996
  0
LINE
  8
Gravur
 62
   255
 39
0.008
  6
CONTINUOUS
 10
1.09681
 20
3.28996
 30
 0
 11
1.31953
 21
3.51268
  0
LINE
  8
Gravur
 62
   255
 39
0.008
  6
CONTINUOUS
 10
1.04594
 20
3.67063
 30
 0
 11
0.96441
 21
3.36638
  0
LINE
  8
Gravur
 62
   255
 39
0.008
  6
CONTINUOUS
 10
0.96441
 20
3.36638
 30
 0
 11
0.96441
 21
3.36638
  0
LINE
  8
Gravur
 62
   255
 39
0.008
  6
CONTINUOUS
 10
0.81161
 20
3.36638
 30
 0
 11
0.81161
 21
3.36638
  0
LINE
  8
Gravur
 62
   255
 39
0.008
  6
CONTINUOUS
 10
0.81161
 20
3.36638
 30
 0
 11
0.73008
 21
3.67063
  0
LINE
  8
Gravur
 62
   255
 39
0.008
  6
CONTINUOUS
 10
0.45650
 20
3.51268
 30
 0
 11
0.67921
 21
3.28996
  0
LINE
  8
Gravur
 62
   255
 39
0.008
  6
CONTINUOUS
 10
0.67921
 20
3.28996
 30
 0
 11
0.67921
 21
3.28996
  0
LINE
  8
Gravur
 62
   255
 39
0.008
  6
CONTINUOUS
 10
0.60280
 20
3.15756
 30
 0
 11
0.60280
 21
3.15756
  0
LINE
  8
Gravur
 62
   255
 39
0.008
  6
CONTINUOUS
 10
0.60280
 20
3.15756
 30
 0
 11
0.29854
 21
3.23909
  0
LINE
  8
Gravur
 62
   255
 39
0.008
  6
CONTINUOUS
 10
0.29854
 20
2.92323
 30
 0
 11
0.60280
 21
3.00476
  0
LINE
  8
Gravur
 62
   255
 39
0.008
  6
CONTINUOUS
 10
0.60280
 20
3.00476
 30
 0
 11
0.60280
 21
3.00476
  0
LINE
  8
Gravur
 62
   255
 39
0.008
  6
CONTINUOUS
 10
0.67921
 20
2.87236
 30
 0
 11
0.67921
 21
2.87236
  0
LINE
  8
Gravur
 62
   255
 39
0.008
  6
CONTINUOUS
 10
0.67921
 20
2.87236
 30
 0
 11
0.45650
 21
2.64965
  0
CIRCLE
  8
Kontur
 62
   7
 39
0.004
  6
CONTINUOUS
 10
3.05504
 20
0.90000
 30
 0
 40
0.18701
  0
CIRCLE
  8
Kontur
 62
   7
 39
0.004
  6
CONTINUOUS
 10
1.30504
 20
1.90000
 30
 0
 40
0.18701
  0
CIRCLE
  8
Kontur
 62
   7
 39
0.004
  6
CONTINUOUS
 10
0.43000
 20
0.90000
 30
 0
 40
0.18701
  0
CIRCLE
  8
Kontur
 62
   7
 39
0.004
  6
CONTINUOUS
 10
1.30504
 20
0.90000
 30
 0
 40
0.18701
  0
CIRCLE
  8
Kontur
 62
   7
 39
0.004
  6
CONTINUOUS
 10
3.24201
 20
0.24299
 30
 0
 40
0.10000
  0
CIRCLE
  8
Kontur
 62
   7
 39
0.004
  6
CONTINUOUS
 10
3.24201
 20
8.49201
 30
 0
 40
0.10000
  0
CIRCLE
  8
Kontur
 62
   7
 39
0.004
  6
CONTINUOUS
 10
0.24299
 20
0.25000
 30
 0
 40
0.10000
  0
CIRCLE
  8
Kontur
 62
   7
 39
0.004
  6
CONTINUOUS
 10
0.43000
 20
1.90000
 30
 0
 40
0.18701
  0
CIRCLE
  8
Kontur
 62
   7
 39
0.004
  6
CONTINUOUS
 10
0.24299
 20
8.49201
 30
 0
 40
0.10000
  0
CIRCLE
  8
Kontur
 62
   7
 39
0.004
  6
CONTINUOUS
 10
0.88252
 20
4.57701
 30
 0
 40
0.18748
  0
CIRCLE
  8
Kontur
 62
   7
 39
0.004
  6
CONTINUOUS
 10
0.88252
 20
7.82697
 30
 0
 40
0.18748
  0
CIRCLE
  8
Kontur
 62
   7
 39
0.004
  6
CONTINUOUS
 10
0.88252
 20
6.20201
 30
 0
 40
0.18748
  0
CIRCLE
  8
Kontur
 62
   7
 39
0.004
  6
CONTINUOUS
 10
2.60252
 20
4.57701
 30
 0
 40
0.18748
  0
CIRCLE
  8
Kontur
 62
   7
 39
0.004
  6
CONTINUOUS
 10
2.60252
 20
7.82697
 30
 0
 40
0.18748
  0
CIRCLE
  8
Kontur
 62
   7
 39
0.004
  6
CONTINUOUS
 10
2.60252
 20
6.20201
 30
 0
 40
0.18748
  0
CIRCLE
  8
Kontur
 62
   7
 39
0.004
  6
CONTINUOUS
 10
3.05504
 20
1.90000
 30
 0
 40
0.18701
  0
CIRCLE
  8
Kontur
 62
   7
 39
0.004
  6
CONTINUOUS
 10
2.18000
 20
0.90000
 30
 0
 40
0.18701
  0
CIRCLE
  8
Kontur
 62
   7
 39
0.004
  6
CONTINUOUS
 10
2.60476
 20
3.07815
 30
 0
 40
0.20374
  0
CIRCLE
  8
Kontur
 62
   7
 39
0.004
  6
CONTINUOUS
 10
0.88799
 20
3.07815
 30
 0
 40
0.18748
  0
LINE
  8
Kontur
 62
   7
 39
0.004
  6
CONTINUOUS
 10
-0.03937
 20
0.00000
 30
 0
 11
0.03937
 21
0.00000
  0
LINE
  8
Kontur
 62
   7
 39
0.004
  6
CONTINUOUS
 10
0.00000
 20
-0.03937
 30
 0
 11
0.00000
 21
0.03937
  0
LINE
  8
Kontur
 62
   7
 39
0.004
  6
CONTINUOUS
 10
3.01567
 20
0.90000
 30
 0
 11
3.09441
 21
0.90000
  0
LINE
  8
Kontur
 62
   7
 39
0.004
  6
CONTINUOUS
 10
3.05504
 20
0.86063
 30
 0
 11
3.05504
 21
0.93937
  0
LINE
  8
Kontur
 62
   7
 39
0.004
  6
CONTINUOUS
 10
1.26567
 20
1.90000
 30
 0
 11
1.34441
 21
1.90000
  0
LINE
  8
Kontur
 62
   7
 39
0.004
  6
CONTINUOUS
 10
1.30504
 20
1.86063
 30
 0
 11
1.30504
 21
1.93937
  0
LINE
  8
Kontur
 62
   7
 39
0.004
  6
CONTINUOUS
 10
0.39063
 20
0.90000
 30
 0
 11
0.46937
 21
0.90000
  0
LINE
  8
Kontur
 62
   7
 39
0.004
  6
CONTINUOUS
 10
0.43000
 20
0.86063
 30
 0
 11
0.43000
 21
0.93937
  0
LINE
  8
Kontur
 62
   7
 39
0.004
  6
CONTINUOUS
 10
1.26567
 20
0.90000
 30
 0
 11
1.34441
 21
0.90000
  0
LINE
  8
Kontur
 62
   7
 39
0.004
  6
CONTINUOUS
 10
1.30504
 20
0.86063
 30
 0
 11
1.30504
 21
0.93937
  0
LINE
  8
Kontur
 62
   7
 39
0.004
  6
CONTINUOUS
 10
1.70315
 20
0.18980
 30
 0
 11
1.78189
 21
0.18980
  0
LINE
  8
Kontur
 62
   7
 39
0.004
  6
CONTINUOUS
 10
1.74252
 20
0.15043
 30
 0
 11
1.74252
 21
0.22917
  0
LINE
  8
Kontur
 62
   7
 39
0.004
  6
CONTINUOUS
 10
3.20264
 20
0.24299
 30
 0
 11
3.28138
 21
0.24299
  0
LINE
  8
Kontur
 62
   7
 39
0.004
  6
CONTINUOUS
 10
3.24201
 20
0.20362
 30
 0
 11
3.24201
 21
0.28236
  0
LINE
  8
Kontur
 62
   7
 39
0.004
  6
CONTINUOUS
 10
3.20264
 20
8.49201
 30
 0
 11
3.28138
 21
8.49201
  0
LINE
  8
Kontur
 62
   7
 39
0.004
  6
CONTINUOUS
 10
3.24201
 20
8.45264
 30
 0
 11
3.24201
 21
8.53138
  0
LINE
  8
Kontur
 62
   7
 39
0.004
  6
CONTINUOUS
 10
0.20362
 20
0.25000
 30
 0
 11
0.28236
 21
0.25000
  0
LINE
  8
Kontur
 62
   7
 39
0.004
  6
CONTINUOUS
 10
0.24299
 20
0.21063
 30
 0
 11
0.24299
 21
0.28937
  0
LINE
  8
Kontur
 62
   7
 39
0.004
  6
CONTINUOUS
 10
0.39063
 20
1.90000
 30
 0
 11
0.46937
 21
1.90000
  0
LINE
  8
Kontur
 62
   7
 39
0.004
  6
CONTINUOUS
 10
0.43000
 20
1.86063
 30
 0
 11
0.43000
 21
1.93937
  0
LINE
  8
Kontur
 62
   7
 39
0.004
  6
CONTINUOUS
 10
0.39063
 20
1.30000
 30
 0
 11
0.46937
 21
1.30000
  0
LINE
  8
Kontur
 62
   7
 39
0.004
  6
CONTINUOUS
 10
0.43000
 20
1.26063
 30
 0
 11
0.43000
 21
1.33937
  0
LINE
  8
Kontur
 62
   7
 39
0.004
  6
CONTINUOUS
 10
3.01567
 20
1.30000
 30
 0
 11
3.09441
 21
1.30000
  0
LINE
  8
Kontur
 62
   7
 39
0.004
  6
CONTINUOUS
 10
3.05504
 20
1.26063
 30
 0
 11
3.05504
 21
1.33937
  0
LINE
  8
Kontur
 62
   7
 39
0.004
  6
CONTINUOUS
 10
1.26567
 20
1.30000
 30
 0
 11
1.34441
 21
1.30000
  0
LINE
  8
Kontur
 62
   7
 39
0.004
  6
CONTINUOUS
 10
1.30504
 20
1.26063
 30
 0
 11
1.30504
 21
1.33937
  0
LINE
  8
Kontur
 62
   7
 39
0.004
  6
CONTINUOUS
 10
1.70315
 20
0.37004
 30
 0
 11
1.78189
 21
0.37004
  0
LINE
  8
Kontur
 62
   7
 39
0.004
  6
CONTINUOUS
 10
1.74252
 20
0.33067
 30
 0
 11
1.74252
 21
0.40941
  0
LINE
  8
Kontur
 62
   7
 39
0.004
  6
CONTINUOUS
 10
0.20362
 20
8.49201
 30
 0
 11
0.28236
 21
8.49201
  0
LINE
  8
Kontur
 62
   7
 39
0.004
  6
CONTINUOUS
 10
0.24299
 20
8.45264
 30
 0
 11
0.24299
 21
8.53138
  0
LINE
  8
Kontur
 62
   7
 39
0.004
  6
CONTINUOUS
 10
0.84315
 20
5.30398
 30
 0
 11
0.92189
 21
5.30398
  0
LINE
  8
Kontur
 62
   7
 39
0.004
  6
CONTINUOUS
 10
0.88252
 20
5.26461
 30
 0
 11
0.88252
 21
5.34335
  0
LINE
  8
Kontur
 62
   7
 39
0.004
  6
CONTINUOUS
 10
0.84315
 20
4.57701
 30
 0
 11
0.92189
 21
4.57701
  0
LINE
  8
Kontur
 62
   7
 39
0.004
  6
CONTINUOUS
 10
0.88252
 20
4.53764
 30
 0
 11
0.88252
 21
4.61638
  0
LINE
  8
Kontur
 62
   7
 39
0.004
  6
CONTINUOUS
 10
0.11390
 20
4.57705
 30
 0
 11
0.19264
 21
4.57705
  0
LINE
  8
Kontur
 62
   7
 39
0.004
  6
CONTINUOUS
 10
0.15327
 20
4.53768
 30
 0
 11
0.15327
 21
4.61642
  0
LINE
  8
Kontur
 62
   7
 39
0.004
  6
CONTINUOUS
 10
0.21169
 20
4.94205
 30
 0
 11
0.29043
 21
4.94205
  0
LINE
  8
Kontur
 62
   7
 39
0.004
  6
CONTINUOUS
 10
0.25106
 20
4.90268
 30
 0
 11
0.25106
 21
4.98142
  0
LINE
  8
Kontur
 62
   7
 39
0.004
  6
CONTINUOUS
 10
0.47890
 20
5.20925
 30
 0
 11
0.55764
 21
5.20925
  0
LINE
  8
Kontur
 62
   7
 39
0.004
  6
CONTINUOUS
 10
0.51827
 20
5.16988
 30
 0
 11
0.51827
 21
5.24862
  0
LINE
  8
Kontur
 62
   7
 39
0.004
  6
CONTINUOUS
 10
0.21169
 20
4.21205
 30
 0
 11
0.29043
 21
4.21205
  0
LINE
  8
Kontur
 62
   7
 39
0.004
  6
CONTINUOUS
 10
0.25106
 20
4.17268
 30
 0
 11
0.25106
 21
4.25142
  0
LINE
  8
Kontur
 62
   7
 39
0.004
  6
CONTINUOUS
 10
0.47890
 20
3.94484
 30
 0
 11
0.55764
 21
3.94484
  0
LINE
  8
Kontur
 62
   7
 39
0.004
  6
CONTINUOUS
 10
0.51827
 20
3.90547
 30
 0
 11
0.51827
 21
3.98421
  0
LINE
  8
Kontur
 62
   7
 39
0.004
  6
CONTINUOUS
 10
1.20890
 20
3.94484
 30
 0
 11
1.28764
 21
3.94484
  0
LINE
  8
Kontur
 62
   7
 39
0.004
  6
CONTINUOUS
 10
1.24827
 20
3.90547
 30
 0
 11
1.24827
 21
3.98421
  0
LINE
  8
Kontur
 62
   7
 39
0.004
  6
CONTINUOUS
 10
1.47610
 20
4.21205
 30
 0
 11
1.55484
 21
4.21205
  0
LINE
  8
Kontur
 62
   7
 39
0.004
  6
CONTINUOUS
 10
1.51547
 20
4.17268
 30
 0
 11
1.51547
 21
4.25142
  0
LINE
  8
Kontur
 62
   7
 39
0.004
  6
CONTINUOUS
 10
1.57390
 20
4.57705
 30
 0
 11
1.65264
 21
4.57705
  0
LINE
  8
Kontur
 62
   7
 39
0.004
  6
CONTINUOUS
 10
1.61327
 20
4.53768
 30
 0
 11
1.61327
 21
4.61642
  0
LINE
  8
Kontur
 62
   7
 39
0.004
  6
CONTINUOUS
 10
1.47610
 20
4.94205
 30
 0
 11
1.55484
 21
4.94205
  0
LINE
  8
Kontur
 62
   7
 39
0.004
  6
CONTINUOUS
 10
1.51547
 20
4.90268
 30
 0
 11
1.51547
 21
4.98142
  0
LINE
  8
Kontur
 62
   7
 39
0.004
  6
CONTINUOUS
 10
1.20890
 20
5.20925
 30
 0
 11
1.28764
 21
5.20925
  0
LINE
  8
Kontur
 62
   7
 39
0.004
  6
CONTINUOUS
 10
1.24827
 20
5.16988
 30
 0
 11
1.24827
 21
5.24862
  0
LINE
  8
Kontur
 62
   7
 39
0.004
  6
CONTINUOUS
 10
0.84315
 20
4.61898
 30
 0
 11
0.92189
 21
4.61898
  0
LINE
  8
Kontur
 62
   7
 39
0.004
  6
CONTINUOUS
 10
0.88252
 20
4.57961
 30
 0
 11
0.88252
 21
4.65835
  0
LINE
  8
Kontur
 62
   7
 39
0.004
  6
CONTINUOUS
 10
0.84315
 20
4.65898
 30
 0
 11
0.92189
 21
4.65898
  0
LINE
  8
Kontur
 62
   7
 39
0.004
  6
CONTINUOUS
 10
0.88252
 20
4.61961
 30
 0
 11
0.88252
 21
4.69835
  0
LINE
  8
Kontur
 62
   7
 39
0.004
  6
CONTINUOUS
 10
0.84315
 20
8.55398
 30
 0
 11
0.92189
 21
8.55398
  0
LINE
  8
Kontur
 62
   7
 39
0.004
  6
CONTINUOUS
 10
0.88252
 20
8.51461
 30
 0
 11
0.88252
 21
8.59335
  0
LINE
  8
Kontur
 62
   7
 39
0.004
  6
CONTINUOUS
 10
0.84315
 20
7.82697
 30
 0
 11
0.92189
 21
7.82697
  0
LINE
  8
Kontur
 62
   7
 39
0.004
  6
CONTINUOUS
 10
0.88252
 20
7.78760
 30
 0
 11
0.88252
 21
7.86634
  0
LINE
  8
Kontur
 62
   7
 39
0.004
  6
CONTINUOUS
 10
0.11390
 20
7.82685
 30
 0
 11
0.19264
 21
7.82685
  0
LINE
  8
Kontur
 62
   7
 39
0.004
  6
CONTINUOUS
 10
0.15327
 20
7.78748
 30
 0
 11
0.15327
 21
7.86622
  0
LINE
  8
Kontur
 62
   7
 39
0.004
  6
CONTINUOUS
 10
0.21169
 20
8.19185
 30
 0
 11
0.29043
 21
8.19185
  0
LINE
  8
Kontur
 62
   7
 39
0.004
  6
CONTINUOUS
 10
0.25106
 20
8.15248
 30
 0
 11
0.25106
 21
8.23122
  0
LINE
  8
Kontur
 62
   7
 39
0.004
  6
CONTINUOUS
 10
0.47890
 20
8.45906
 30
 0
 11
0.55764
 21
8.45906
  0
LINE
  8
Kontur
 62
   7
 39
0.004
  6
CONTINUOUS
 10
0.51827
 20
8.41969
 30
 0
 11
0.51827
 21
8.49843
  0
LINE
  8
Kontur
 62
   7
 39
0.004
  6
CONTINUOUS
 10
0.21169
 20
7.46185
 30
 0
 11
0.29043
 21
7.46185
  0
LINE
  8
Kontur
 62
   7
 39
0.004
  6
CONTINUOUS
 10
0.25106
 20
7.42248
 30
 0
 11
0.25106
 21
7.50122
  0
LINE
  8
Kontur
 62
   7
 39
0.004
  6
CONTINUOUS
 10
0.47890
 20
7.19465
 30
 0
 11
0.55764
 21
7.19465
  0
LINE
  8
Kontur
 62
   7
 39
0.004
  6
CONTINUOUS
 10
0.51827
 20
7.15528
 30
 0
 11
0.51827
 21
7.23402
  0
LINE
  8
Kontur
 62
   7
 39
0.004
  6
CONTINUOUS
 10
1.20890
 20
7.19465
 30
 0
 11
1.28764
 21
7.19465
  0
LINE
  8
Kontur
 62
   7
 39
0.004
  6
CONTINUOUS
 10
1.24827
 20
7.15528
 30
 0
 11
1.24827
 21
7.23402
  0
LINE
  8
Kontur
 62
   7
 39
0.004
  6
CONTINUOUS
 10
1.47610
 20
7.46185
 30
 0
 11
1.55484
 21
7.46185
  0
LINE
  8
Kontur
 62
   7
 39
0.004
  6
CONTINUOUS
 10
1.51547
 20
7.42248
 30
 0
 11
1.51547
 21
7.50122
  0
LINE
  8
Kontur
 62
   7
 39
0.004
  6
CONTINUOUS
 10
1.57390
 20
7.82685
 30
 0
 11
1.65264
 21
7.82685
  0
LINE
  8
Kontur
 62
   7
 39
0.004
  6
CONTINUOUS
 10
1.61327
 20
7.78748
 30
 0
 11
1.61327
 21
7.86622
  0
LINE
  8
Kontur
 62
   7
 39
0.004
  6
CONTINUOUS
 10
1.47610
 20
8.19185
 30
 0
 11
1.55484
 21
8.19185
  0
LINE
  8
Kontur
 62
   7
 39
0.004
  6
CONTINUOUS
 10
1.51547
 20
8.15248
 30
 0
 11
1.51547
 21
8.23122
  0
LINE
  8
Kontur
 62
   7
 39
0.004
  6
CONTINUOUS
 10
1.20890
 20
8.45906
 30
 0
 11
1.28764
 21
8.45906
  0
LINE
  8
Kontur
 62
   7
 39
0.004
  6
CONTINUOUS
 10
1.24827
 20
8.41969
 30
 0
 11
1.24827
 21
8.49843
  0
LINE
  8
Kontur
 62
   7
 39
0.004
  6
CONTINUOUS
 10
0.84315
 20
6.92898
 30
 0
 11
0.92189
 21
6.92898
  0
LINE
  8
Kontur
 62
   7
 39
0.004
  6
CONTINUOUS
 10
0.88252
 20
6.88961
 30
 0
 11
0.88252
 21
6.96835
  0
LINE
  8
Kontur
 62
   7
 39
0.004
  6
CONTINUOUS
 10
0.84315
 20
6.20201
 30
 0
 11
0.92189
 21
6.20201
  0
LINE
  8
Kontur
 62
   7
 39
0.004
  6
CONTINUOUS
 10
0.88252
 20
6.16264
 30
 0
 11
0.88252
 21
6.24138
  0
LINE
  8
Kontur
 62
   7
 39
0.004
  6
CONTINUOUS
 10
0.11390
 20
6.20197
 30
 0
 11
0.19264
 21
6.20197
  0
LINE
  8
Kontur
 62
   7
 39
0.004
  6
CONTINUOUS
 10
0.15327
 20
6.16260
 30
 0
 11
0.15327
 21
6.24134
  0
LINE
  8
Kontur
 62
   7
 39
0.004
  6
CONTINUOUS
 10
0.21169
 20
6.56697
 30
 0
 11
0.29043
 21
6.56697
  0
LINE
  8
Kontur
 62
   7
 39
0.004
  6
CONTINUOUS
 10
0.25106
 20
6.52760
 30
 0
 11
0.25106
 21
6.60634
  0
LINE
  8
Kontur
 62
   7
 39
0.004
  6
CONTINUOUS
 10
0.47890
 20
6.83417
 30
 0
 11
0.55764
 21
6.83417
  0
LINE
  8
Kontur
 62
   7
 39
0.004
  6
CONTINUOUS
 10
0.51827
 20
6.79480
 30
 0
 11
0.51827
 21
6.87354
  0
LINE
  8
Kontur
 62
   7
 39
0.004
  6
CONTINUOUS
 10
0.21169
 20
5.83697
 30
 0
 11
0.29043
 21
5.83697
  0
LINE
  8
Kontur
 62
   7
 39
0.004
  6
CONTINUOUS
 10
0.25106
 20
5.79760
 30
 0
 11
0.25106
 21
5.87634
  0
LINE
  8
Kontur
 62
   7
 39
0.004
  6
CONTINUOUS
 10
0.47890
 20
5.56976
 30
 0
 11
0.55764
 21
5.56976
  0
LINE
  8
Kontur
 62
   7
 39
0.004
  6
CONTINUOUS
 10
0.51827
 20
5.53039
 30
 0
 11
0.51827
 21
5.60913
  0
LINE
  8
Kontur
 62
   7
 39
0.004
  6
CONTINUOUS
 10
1.20890
 20
5.56976
 30
 0
 11
1.28764
 21
5.56976
  0
LINE
  8
Kontur
 62
   7
 39
0.004
  6
CONTINUOUS
 10
1.24827
 20
5.53039
 30
 0
 11
1.24827
 21
5.60913
  0
LINE
  8
Kontur
 62
   7
 39
0.004
  6
CONTINUOUS
 10
1.47610
 20
5.83697
 30
 0
 11
1.55484
 21
5.83697
  0
LINE
  8
Kontur
 62
   7
 39
0.004
  6
CONTINUOUS
 10
1.51547
 20
5.79760
 30
 0
 11
1.51547
 21
5.87634
  0
LINE
  8
Kontur
 62
   7
 39
0.004
  6
CONTINUOUS
 10
1.57390
 20
6.20197
 30
 0
 11
1.65264
 21
6.20197
  0
LINE
  8
Kontur
 62
   7
 39
0.004
  6
CONTINUOUS
 10
1.61327
 20
6.16260
 30
 0
 11
1.61327
 21
6.24134
  0
LINE
  8
Kontur
 62
   7
 39
0.004
  6
CONTINUOUS
 10
1.47610
 20
6.56697
 30
 0
 11
1.55484
 21
6.56697
  0
LINE
  8
Kontur
 62
   7
 39
0.004
  6
CONTINUOUS
 10
1.51547
 20
6.52760
 30
 0
 11
1.51547
 21
6.60634
  0
LINE
  8
Kontur
 62
   7
 39
0.004
  6
CONTINUOUS
 10
1.20890
 20
6.83417
 30
 0
 11
1.28764
 21
6.83417
  0
LINE
  8
Kontur
 62
   7
 39
0.004
  6
CONTINUOUS
 10
1.24827
 20
6.79480
 30
 0
 11
1.24827
 21
6.87354
  0
LINE
  8
Kontur
 62
   7
 39
0.004
  6
CONTINUOUS
 10
0.84315
 20
6.28402
 30
 0
 11
0.92189
 21
6.28402
  0
LINE
  8
Kontur
 62
   7
 39
0.004
  6
CONTINUOUS
 10
0.88252
 20
6.24465
 30
 0
 11
0.88252
 21
6.32339
  0
LINE
  8
Kontur
 62
   7
 39
0.004
  6
CONTINUOUS
 10
0.84315
 20
6.24398
 30
 0
 11
0.92189
 21
6.24398
  0
LINE
  8
Kontur
 62
   7
 39
0.004
  6
CONTINUOUS
 10
0.88252
 20
6.20461
 30
 0
 11
0.88252
 21
6.28335
  0
LINE
  8
Kontur
 62
   7
 39
0.004
  6
CONTINUOUS
 10
0.84315
 20
7.90894
 30
 0
 11
0.92189
 21
7.90894
  0
LINE
  8
Kontur
 62
   7
 39
0.004
  6
CONTINUOUS
 10
0.88252
 20
7.86957
 30
 0
 11
0.88252
 21
7.94831
  0
LINE
  8
Kontur
 62
   7
 39
0.004
  6
CONTINUOUS
 10
0.84315
 20
7.86898
 30
 0
 11
0.92189
 21
7.86898
  0
LINE
  8
Kontur
 62
   7
 39
0.004
  6
CONTINUOUS
 10
0.88252
 20
7.82961
 30
 0
 11
0.88252
 21
7.90835
  0
LINE
  8
Kontur
 62
   7
 39
0.004
  6
CONTINUOUS
 10
2.56315
 20
5.30398
 30
 0
 11
2.64189
 21
5.30398
  0
LINE
  8
Kontur
 62
   7
 39
0.004
  6
CONTINUOUS
 10
2.60252
 20
5.26461
 30
 0
 11
2.60252
 21
5.34335
  0
LINE
  8
Kontur
 62
   7
 39
0.004
  6
CONTINUOUS
 10
2.56315
 20
4.57701
 30
 0
 11
2.64189
 21
4.57701
  0
LINE
  8
Kontur
 62
   7
 39
0.004
  6
CONTINUOUS
 10
2.60252
 20
4.53764
 30
 0
 11
2.60252
 21
4.61638
  0
LINE
  8
Kontur
 62
   7
 39
0.004
  6
CONTINUOUS
 10
1.83236
 20
4.57705
 30
 0
 11
1.91110
 21
4.57705
  0
LINE
  8
Kontur
 62
   7
 39
0.004
  6
CONTINUOUS
 10
1.87173
 20
4.53768
 30
 0
 11
1.87173
 21
4.61642
  0
LINE
  8
Kontur
 62
   7
 39
0.004
  6
CONTINUOUS
 10
1.93016
 20
4.94205
 30
 0
 11
2.00890
 21
4.94205
  0
LINE
  8
Kontur
 62
   7
 39
0.004
  6
CONTINUOUS
 10
1.96953
 20
4.90268
 30
 0
 11
1.96953
 21
4.98142
  0
LINE
  8
Kontur
 62
   7
 39
0.004
  6
CONTINUOUS
 10
2.19736
 20
5.20925
 30
 0
 11
2.27610
 21
5.20925
  0
LINE
  8
Kontur
 62
   7
 39
0.004
  6
CONTINUOUS
 10
2.23673
 20
5.16988
 30
 0
 11
2.23673
 21
5.24862
  0
LINE
  8
Kontur
 62
   7
 39
0.004
  6
CONTINUOUS
 10
1.93016
 20
4.21205
 30
 0
 11
2.00890
 21
4.21205
  0
LINE
  8
Kontur
 62
   7
 39
0.004
  6
CONTINUOUS
 10
1.96953
 20
4.17268
 30
 0
 11
1.96953
 21
4.25142
  0
LINE
  8
Kontur
 62
   7
 39
0.004
  6
CONTINUOUS
 10
2.19736
 20
3.94484
 30
 0
 11
2.27610
 21
3.94484
  0
LINE
  8
Kontur
 62
   7
 39
0.004
  6
CONTINUOUS
 10
2.23673
 20
3.90547
 30
 0
 11
2.23673
 21
3.98421
  0
LINE
  8
Kontur
 62
   7
 39
0.004
  6
CONTINUOUS
 10
2.92736
 20
3.94484
 30
 0
 11
3.00610
 21
3.94484
  0
LINE
  8
Kontur
 62
   7
 39
0.004
  6
CONTINUOUS
 10
2.96673
 20
3.90547
 30
 0
 11
2.96673
 21
3.98421
  0
LINE
  8
Kontur
 62
   7
 39
0.004
  6
CONTINUOUS
 10
3.19457
 20
4.21205
 30
 0
 11
3.27331
 21
4.21205
  0
LINE
  8
Kontur
 62
   7
 39
0.004
  6
CONTINUOUS
 10
3.23394
 20
4.17268
 30
 0
 11
3.23394
 21
4.25142
  0
LINE
  8
Kontur
 62
   7
 39
0.004
  6
CONTINUOUS
 10
3.29236
 20
4.57705
 30
 0
 11
3.37110
 21
4.57705
  0
LINE
  8
Kontur
 62
   7
 39
0.004
  6
CONTINUOUS
 10
3.33173
 20
4.53768
 30
 0
 11
3.33173
 21
4.61642
  0
LINE
  8
Kontur
 62
   7
 39
0.004
  6
CONTINUOUS
 10
3.19457
 20
4.94205
 30
 0
 11
3.27331
 21
4.94205
  0
LINE
  8
Kontur
 62
   7
 39
0.004
  6
CONTINUOUS
 10
3.23394
 20
4.90268
 30
 0
 11
3.23394
 21
4.98142
  0
LINE
  8
Kontur
 62
   7
 39
0.004
  6
CONTINUOUS
 10
2.92736
 20
5.20925
 30
 0
 11
3.00610
 21
5.20925
  0
LINE
  8
Kontur
 62
   7
 39
0.004
  6
CONTINUOUS
 10
2.96673
 20
5.16988
 30
 0
 11
2.96673
 21
5.24862
  0
LINE
  8
Kontur
 62
   7
 39
0.004
  6
CONTINUOUS
 10
2.56315
 20
4.61898
 30
 0
 11
2.64189
 21
4.61898
  0
LINE
  8
Kontur
 62
   7
 39
0.004
  6
CONTINUOUS
 10
2.60252
 20
4.57961
 30
 0
 11
2.60252
 21
4.65835
  0
LINE
  8
Kontur
 62
   7
 39
0.004
  6
CONTINUOUS
 10
2.56315
 20
4.65898
 30
 0
 11
2.64189
 21
4.65898
  0
LINE
  8
Kontur
 62
   7
 39
0.004
  6
CONTINUOUS
 10
2.60252
 20
4.61961
 30
 0
 11
2.60252
 21
4.69835
  0
LINE
  8
Kontur
 62
   7
 39
0.004
  6
CONTINUOUS
 10
2.56315
 20
8.55398
 30
 0
 11
2.64189
 21
8.55398
  0
LINE
  8
Kontur
 62
   7
 39
0.004
  6
CONTINUOUS
 10
2.60252
 20
8.51461
 30
 0
 11
2.60252
 21
8.59335
  0
LINE
  8
Kontur
 62
   7
 39
0.004
  6
CONTINUOUS
 10
2.56315
 20
7.82697
 30
 0
 11
2.64189
 21
7.82697
  0
LINE
  8
Kontur
 62
   7
 39
0.004
  6
CONTINUOUS
 10
2.60252
 20
7.78760
 30
 0
 11
2.60252
 21
7.86634
  0
LINE
  8
Kontur
 62
   7
 39
0.004
  6
CONTINUOUS
 10
1.83236
 20
7.82685
 30
 0
 11
1.91110
 21
7.82685
  0
LINE
  8
Kontur
 62
   7
 39
0.004
  6
CONTINUOUS
 10
1.87173
 20
7.78748
 30
 0
 11
1.87173
 21
7.86622
  0
LINE
  8
Kontur
 62
   7
 39
0.004
  6
CONTINUOUS
 10
1.93016
 20
8.19185
 30
 0
 11
2.00890
 21
8.19185
  0
LINE
  8
Kontur
 62
   7
 39
0.004
  6
CONTINUOUS
 10
1.96953
 20
8.15248
 30
 0
 11
1.96953
 21
8.23122
  0
LINE
  8
Kontur
 62
   7
 39
0.004
  6
CONTINUOUS
 10
2.19736
 20
8.45906
 30
 0
 11
2.27610
 21
8.45906
  0
LINE
  8
Kontur
 62
   7
 39
0.004
  6
CONTINUOUS
 10
2.23673
 20
8.41969
 30
 0
 11
2.23673
 21
8.49843
  0
LINE
  8
Kontur
 62
   7
 39
0.004
  6
CONTINUOUS
 10
1.93016
 20
7.46185
 30
 0
 11
2.00890
 21
7.46185
  0
LINE
  8
Kontur
 62
   7
 39
0.004
  6
CONTINUOUS
 10
1.96953
 20
7.42248
 30
 0
 11
1.96953
 21
7.50122
  0
LINE
  8
Kontur
 62
   7
 39
0.004
  6
CONTINUOUS
 10
2.19736
 20
7.19465
 30
 0
 11
2.27610
 21
7.19465
  0
LINE
  8
Kontur
 62
   7
 39
0.004
  6
CONTINUOUS
 10
2.23673
 20
7.15528
 30
 0
 11
2.23673
 21
7.23402
  0
LINE
  8
Kontur
 62
   7
 39
0.004
  6
CONTINUOUS
 10
2.92736
 20
7.19465
 30
 0
 11
3.00610
 21
7.19465
  0
LINE
  8
Kontur
 62
   7
 39
0.004
  6
CONTINUOUS
 10
2.96673
 20
7.15528
 30
 0
 11
2.96673
 21
7.23402
  0
LINE
  8
Kontur
 62
   7
 39
0.004
  6
CONTINUOUS
 10
3.19457
 20
7.46185
 30
 0
 11
3.27331
 21
7.46185
  0
LINE
  8
Kontur
 62
   7
 39
0.004
  6
CONTINUOUS
 10
3.23394
 20
7.42248
 30
 0
 11
3.23394
 21
7.50122
  0
LINE
  8
Kontur
 62
   7
 39
0.004
  6
CONTINUOUS
 10
3.29236
 20
7.82685
 30
 0
 11
3.37110
 21
7.82685
  0
LINE
  8
Kontur
 62
   7
 39
0.004
  6
CONTINUOUS
 10
3.33173
 20
7.78748
 30
 0
 11
3.33173
 21
7.86622
  0
LINE
  8
Kontur
 62
   7
 39
0.004
  6
CONTINUOUS
 10
3.19457
 20
8.19185
 30
 0
 11
3.27331
 21
8.19185
  0
LINE
  8
Kontur
 62
   7
 39
0.004
  6
CONTINUOUS
 10
3.23394
 20
8.15248
 30
 0
 11
3.23394
 21
8.23122
  0
LINE
  8
Kontur
 62
   7
 39
0.004
  6
CONTINUOUS
 10
2.92736
 20
8.45906
 30
 0
 11
3.00610
 21
8.45906
  0
LINE
  8
Kontur
 62
   7
 39
0.004
  6
CONTINUOUS
 10
2.96673
 20
8.41969
 30
 0
 11
2.96673
 21
8.49843
  0
LINE
  8
Kontur
 62
   7
 39
0.004
  6
CONTINUOUS
 10
2.56315
 20
6.92898
 30
 0
 11
2.64189
 21
6.92898
  0
LINE
  8
Kontur
 62
   7
 39
0.004
  6
CONTINUOUS
 10
2.60252
 20
6.88961
 30
 0
 11
2.60252
 21
6.96835
  0
LINE
  8
Kontur
 62
   7
 39
0.004
  6
CONTINUOUS
 10
2.56315
 20
6.20201
 30
 0
 11
2.64189
 21
6.20201
  0
LINE
  8
Kontur
 62
   7
 39
0.004
  6
CONTINUOUS
 10
2.60252
 20
6.16264
 30
 0
 11
2.60252
 21
6.24138
  0
LINE
  8
Kontur
 62
   7
 39
0.004
  6
CONTINUOUS
 10
1.83236
 20
6.20197
 30
 0
 11
1.91110
 21
6.20197
  0
LINE
  8
Kontur
 62
   7
 39
0.004
  6
CONTINUOUS
 10
1.87173
 20
6.16260
 30
 0
 11
1.87173
 21
6.24134
  0
LINE
  8
Kontur
 62
   7
 39
0.004
  6
CONTINUOUS
 10
1.93016
 20
6.56697
 30
 0
 11
2.00890
 21
6.56697
  0
LINE
  8
Kontur
 62
   7
 39
0.004
  6
CONTINUOUS
 10
1.96953
 20
6.52760
 30
 0
 11
1.96953
 21
6.60634
  0
LINE
  8
Kontur
 62
   7
 39
0.004
  6
CONTINUOUS
 10
2.19736
 20
6.83417
 30
 0
 11
2.27610
 21
6.83417
  0
LINE
  8
Kontur
 62
   7
 39
0.004
  6
CONTINUOUS
 10
2.23673
 20
6.79480
 30
 0
 11
2.23673
 21
6.87354
  0
LINE
  8
Kontur
 62
   7
 39
0.004
  6
CONTINUOUS
 10
1.93016
 20
5.83697
 30
 0
 11
2.00890
 21
5.83697
  0
LINE
  8
Kontur
 62
   7
 39
0.004
  6
CONTINUOUS
 10
1.96953
 20
5.79760
 30
 0
 11
1.96953
 21
5.87634
  0
LINE
  8
Kontur
 62
   7
 39
0.004
  6
CONTINUOUS
 10
2.19736
 20
5.56976
 30
 0
 11
2.27610
 21
5.56976
  0
LINE
  8
Kontur
 62
   7
 39
0.004
  6
CONTINUOUS
 10
2.23673
 20
5.53039
 30
 0
 11
2.23673
 21
5.60913
  0
LINE
  8
Kontur
 62
   7
 39
0.004
  6
CONTINUOUS
 10
2.92736
 20
5.56976
 30
 0
 11
3.00610
 21
5.56976
  0
LINE
  8
Kontur
 62
   7
 39
0.004
  6
CONTINUOUS
 10
2.96673
 20
5.53039
 30
 0
 11
2.96673
 21
5.60913
  0
LINE
  8
Kontur
 62
   7
 39
0.004
  6
CONTINUOUS
 10
3.19457
 20
5.83697
 30
 0
 11
3.27331
 21
5.83697
  0
LINE
  8
Kontur
 62
   7
 39
0.004
  6
CONTINUOUS
 10
3.23394
 20
5.79760
 30
 0
 11
3.23394
 21
5.87634
  0
LINE
  8
Kontur
 62
   7
 39
0.004
  6
CONTINUOUS
 10
3.29236
 20
6.20197
 30
 0
 11
3.37110
 21
6.20197
  0
LINE
  8
Kontur
 62
   7
 39
0.004
  6
CONTINUOUS
 10
3.33173
 20
6.16260
 30
 0
 11
3.33173
 21
6.24134
  0
LINE
  8
Kontur
 62
   7
 39
0.004
  6
CONTINUOUS
 10
3.19457
 20
6.56697
 30
 0
 11
3.27331
 21
6.56697
  0
LINE
  8
Kontur
 62
   7
 39
0.004
  6
CONTINUOUS
 10
3.23394
 20
6.52760
 30
 0
 11
3.23394
 21
6.60634
  0
LINE
  8
Kontur
 62
   7
 39
0.004
  6
CONTINUOUS
 10
2.92736
 20
6.83417
 30
 0
 11
3.00610
 21
6.83417
  0
LINE
  8
Kontur
 62
   7
 39
0.004
  6
CONTINUOUS
 10
2.96673
 20
6.79480
 30
 0
 11
2.96673
 21
6.87354
  0
LINE
  8
Kontur
 62
   7
 39
0.004
  6
CONTINUOUS
 10
2.56315
 20
6.28402
 30
 0
 11
2.64189
 21
6.28402
  0
LINE
  8
Kontur
 62
   7
 39
0.004
  6
CONTINUOUS
 10
2.60252
 20
6.24465
 30
 0
 11
2.60252
 21
6.32339
  0
LINE
  8
Kontur
 62
   7
 39
0.004
  6
CONTINUOUS
 10
2.56315
 20
6.24398
 30
 0
 11
2.64189
 21
6.24398
  0
LINE
  8
Kontur
 62
   7
 39
0.004
  6
CONTINUOUS
 10
2.60252
 20
6.20461
 30
 0
 11
2.60252
 21
6.28335
  0
LINE
  8
Kontur
 62
   7
 39
0.004
  6
CONTINUOUS
 10
2.56315
 20
7.90894
 30
 0
 11
2.64189
 21
7.90894
  0
LINE
  8
Kontur
 62
   7
 39
0.004
  6
CONTINUOUS
 10
2.60252
 20
7.86957
 30
 0
 11
2.60252
 21
7.94831
  0
LINE
  8
Kontur
 62
   7
 39
0.004
  6
CONTINUOUS
 10
2.56315
 20
7.86898
 30
 0
 11
2.64189
 21
7.86898
  0
LINE
  8
Kontur
 62
   7
 39
0.004
  6
CONTINUOUS
 10
2.60252
 20
7.82961
 30
 0
 11
2.60252
 21
7.90835
  0
LINE
  8
Kontur
 62
   7
 39
0.004
  6
CONTINUOUS
 10
0.39063
 20
2.30000
 30
 0
 11
0.46937
 21
2.30000
  0
LINE
  8
Kontur
 62
   7
 39
0.004
  6
CONTINUOUS
 10
0.43000
 20
2.26063
 30
 0
 11
0.43000
 21
2.33937
  0
LINE
  8
Kontur
 62
   7
 39
0.004
  6
CONTINUOUS
 10
1.26567
 20
2.30000
 30
 0
 11
1.34441
 21
2.30000
  0
LINE
  8
Kontur
 62
   7
 39
0.004
  6
CONTINUOUS
 10
1.30504
 20
2.26063
 30
 0
 11
1.30504
 21
2.33937
  0
LINE
  8
Kontur
 62
   7
 39
0.004
  6
CONTINUOUS
 10
3.01567
 20
1.90000
 30
 0
 11
3.09441
 21
1.90000
  0
LINE
  8
Kontur
 62
   7
 39
0.004
  6
CONTINUOUS
 10
3.05504
 20
1.86063
 30
 0
 11
3.05504
 21
1.93937
  0
LINE
  8
Kontur
 62
   7
 39
0.004
  6
CONTINUOUS
 10
3.01567
 20
2.30000
 30
 0
 11
3.09441
 21
2.30000
  0
LINE
  8
Kontur
 62
   7
 39
0.004
  6
CONTINUOUS
 10
3.05504
 20
2.26063
 30
 0
 11
3.05504
 21
2.33937
  0
LINE
  8
Kontur
 62
   7
 39
0.004
  6
CONTINUOUS
 10
3.00819
 20
1.54803
 30
 0
 11
3.08693
 21
1.54803
  0
LINE
  8
Kontur
 62
   7
 39
0.004
  6
CONTINUOUS
 10
3.04756
 20
1.50866
 30
 0
 11
3.04756
 21
1.58740
  0
LINE
  8
Kontur
 62
   7
 39
0.004
  6
CONTINUOUS
 10
2.14063
 20
0.90000
 30
 0
 11
2.21937
 21
0.90000
  0
LINE
  8
Kontur
 62
   7
 39
0.004
  6
CONTINUOUS
 10
2.18000
 20
0.86063
 30
 0
 11
2.18000
 21
0.93937
  0
LINE
  8
Kontur
 62
   7
 39
0.004
  6
CONTINUOUS
 10
2.14063
 20
1.30000
 30
 0
 11
2.21937
 21
1.30000
  0
LINE
  8
Kontur
 62
   7
 39
0.004
  6
CONTINUOUS
 10
2.18000
 20
1.26063
 30
 0
 11
2.18000
 21
1.33937
  0
LINE
  8
Kontur
 62
   7
 39
0.004
  6
CONTINUOUS
 10
2.56539
 20
3.07815
 30
 0
 11
2.64413
 21
3.07815
  0
LINE
  8
Kontur
 62
   7
 39
0.004
  6
CONTINUOUS
 10
2.60476
 20
3.03878
 30
 0
 11
2.60476
 21
3.11752
  0
LINE
  8
Kontur
 62
   7
 39
0.004
  6
CONTINUOUS
 10
1.83461
 20
3.07819
 30
 0
 11
1.91335
 21
3.07819
  0
LINE
  8
Kontur
 62
   7
 39
0.004
  6
CONTINUOUS
 10
1.87398
 20
3.03882
 30
 0
 11
1.87398
 21
3.11756
  0
LINE
  8
Kontur
 62
   7
 39
0.004
  6
CONTINUOUS
 10
1.93240
 20
3.44319
 30
 0
 11
2.01114
 21
3.44319
  0
LINE
  8
Kontur
 62
   7
 39
0.004
  6
CONTINUOUS
 10
1.97177
 20
3.40382
 30
 0
 11
1.97177
 21
3.48256
  0
LINE
  8
Kontur
 62
   7
 39
0.004
  6
CONTINUOUS
 10
1.93240
 20
2.71319
 30
 0
 11
2.01114
 21
2.71319
  0
LINE
  8
Kontur
 62
   7
 39
0.004
  6
CONTINUOUS
 10
1.97177
 20
2.67382
 30
 0
 11
1.97177
 21
2.75256
  0
LINE
  8
Kontur
 62
   7
 39
0.004
  6
CONTINUOUS
 10
2.19961
 20
2.44598
 30
 0
 11
2.27835
 21
2.44598
  0
LINE
  8
Kontur
 62
   7
 39
0.004
  6
CONTINUOUS
 10
2.23898
 20
2.40661
 30
 0
 11
2.23898
 21
2.48535
  0
LINE
  8
Kontur
 62
   7
 39
0.004
  6
CONTINUOUS
 10
0.84862
 20
3.80512
 30
 0
 11
0.92736
 21
3.80512
  0
LINE
  8
Kontur
 62
   7
 39
0.004
  6
CONTINUOUS
 10
0.88799
 20
3.76575
 30
 0
 11
0.88799
 21
3.84449
  0
LINE
  8
Kontur
 62
   7
 39
0.004
  6
CONTINUOUS
 10
0.84862
 20
3.07815
 30
 0
 11
0.92736
 21
3.07815
  0
LINE
  8
Kontur
 62
   7
 39
0.004
  6
CONTINUOUS
 10
0.88799
 20
3.03878
 30
 0
 11
0.88799
 21
3.11752
  0
LINE
  8
Kontur
 62
   7
 39
0.004
  6
CONTINUOUS
 10
0.11937
 20
3.07819
 30
 0
 11
0.19811
 21
3.07819
  0
LINE
  8
Kontur
 62
   7
 39
0.004
  6
CONTINUOUS
 10
0.15874
 20
3.03882
 30
 0
 11
0.15874
 21
3.11756
  0
LINE
  8
Kontur
 62
   7
 39
0.004
  6
CONTINUOUS
 10
0.21717
 20
3.44319
 30
 0
 11
0.29591
 21
3.44319
  0
LINE
  8
Kontur
 62
   7
 39
0.004
  6
CONTINUOUS
 10
0.25654
 20
3.40382
 30
 0
 11
0.25654
 21
3.48256
  0
LINE
  8
Kontur
 62
   7
 39
0.004
  6
CONTINUOUS
 10
0.48437
 20
3.71039
 30
 0
 11
0.56311
 21
3.71039
  0
LINE
  8
Kontur
 62
   7
 39
0.004
  6
CONTINUOUS
 10
0.52374
 20
3.67102
 30
 0
 11
0.52374
 21
3.74976
  0
LINE
  8
Kontur
 62
   7
 39
0.004
  6
CONTINUOUS
 10
0.21717
 20
2.71319
 30
 0
 11
0.29591
 21
2.71319
  0
LINE
  8
Kontur
 62
   7
 39
0.004
  6
CONTINUOUS
 10
0.25654
 20
2.67382
 30
 0
 11
0.25654
 21
2.75256
  0
LINE
  8
Kontur
 62
   7
 39
0.004
  6
CONTINUOUS
 10
0.48437
 20
2.44598
 30
 0
 11
0.56311
 21
2.44598
  0
LINE
  8
Kontur
 62
   7
 39
0.004
  6
CONTINUOUS
 10
0.52374
 20
2.40661
 30
 0
 11
0.52374
 21
2.48535
  0
LINE
  8
Kontur
 62
   7
 39
0.004
  6
CONTINUOUS
 10
1.21437
 20
2.44598
 30
 0
 11
1.29311
 21
2.44598
  0
LINE
  8
Kontur
 62
   7
 39
0.004
  6
CONTINUOUS
 10
1.25374
 20
2.40661
 30
 0
 11
1.25374
 21
2.48535
  0
LINE
  8
Kontur
 62
   7
 39
0.004
  6
CONTINUOUS
 10
1.48157
 20
2.71319
 30
 0
 11
1.56031
 21
2.71319
  0
LINE
  8
Kontur
 62
   7
 39
0.004
  6
CONTINUOUS
 10
1.52094
 20
2.67382
 30
 0
 11
1.52094
 21
2.75256
  0
LINE
  8
Kontur
 62
   7
 39
0.004
  6
CONTINUOUS
 10
1.57937
 20
3.07819
 30
 0
 11
1.65811
 21
3.07819
  0
LINE
  8
Kontur
 62
   7
 39
0.004
  6
CONTINUOUS
 10
1.61874
 20
3.03882
 30
 0
 11
1.61874
 21
3.11756
  0
LINE
  8
Kontur
 62
   7
 39
0.004
  6
CONTINUOUS
 10
1.48157
 20
3.44319
 30
 0
 11
1.56031
 21
3.44319
  0
LINE
  8
Kontur
 62
   7
 39
0.004
  6
CONTINUOUS
 10
1.52094
 20
3.40382
 30
 0
 11
1.52094
 21
3.48256
  0
LINE
  8
Kontur
 62
   7
 39
0.004
  6
CONTINUOUS
 10
1.21437
 20
3.71039
 30
 0
 11
1.29311
 21
3.71039
  0
LINE
  8
Kontur
 62
   7
 39
0.004
  6
CONTINUOUS
 10
1.25374
 20
3.67102
 30
 0
 11
1.25374
 21
3.74976
  0
LINE
  8
Kontur
 62
   7
 39
0.004
  6
CONTINUOUS
 10
0.84862
 20
3.12012
 30
 0
 11
0.92736
 21
3.12012
  0
LINE
  8
Kontur
 62
   7
 39
0.004
  6
CONTINUOUS
 10
0.88799
 20
3.08075
 30
 0
 11
0.88799
 21
3.15949
  0
LINE
  8
Kontur
 62
   7
 39
0.004
  6
CONTINUOUS
 10
0.84862
 20
3.16012
 30
 0
 11
0.92736
 21
3.16012
  0
LINE
  8
Kontur
 62
   7
 39
0.004
  6
CONTINUOUS
 10
0.88799
 20
3.12075
 30
 0
 11
0.88799
 21
3.19949
  0
ENDSEC
  0
EOF
