  0
SECTION
  2
HEADER
  9
$MEASUREMENT
  70
  0
  9
$INSUNITS
  70
  1
  0
ENDSEC
  0
SECTION
  2
TABLES
  0
TABLE
  2
LTYPE
 70
     1
  0
LTYPE
  2
CONTINUOUS
 70
    64
  3
Ausgezogene Linie
 72
    65
 73
     0
 40
0.0
  0
ENDTAB
  0
TABLE
  2
LAYER
 70
     3
  0
LAYER
  2
Contour
 70
    64
 62
     7
  6
CONTINUOUS
  0
LAYER
  2
Engraving
 70
    64
 62
     7
  6
CONTINUOUS
  0
LAYER
  2
Reference_points
 70
    64
 62
     1
  6
CONTINUOUS
  0
ENDTAB
  0
TABLE
  2
STYLE
 70
     1
  0
STYLE
  2
TXT
 70
    64
 40
0.0
 41
1.0
 50
0.0
 71
     0
 42
3.500000
  3
TXT
  0
ENDTAB
  0
ENDSEC
  0
SECTION
  2
BLOCKS
  0
ENDSEC
  0
SECTION
  2
ENTITIES
  0
LINE
  8
Contour
 62
   7
 39
0.004
  6
CONTINUOUS
 10
1.75000
 20
8.73500
 30
 0
 11
0.00000
 21
8.73500
  0
LINE
  8
Contour
 62
   7
 39
0.004
  6
CONTINUOUS
 10
0.00000
 20
8.73500
 30
 0
 11
0.00000
 21
8.73500
  0
LINE
  8
Contour
 62
   7
 39
0.004
  6
CONTINUOUS
 10
0.00000
 20
8.73500
 30
 0
 11
0.00000
 21
0.00000
  0
LINE
  8
Contour
 62
   7
 39
0.004
  6
CONTINUOUS
 10
0.00000
 20
0.00000
 30
 0
 11
0.00000
 21
0.00000
  0
LINE
  8
Contour
 62
   7
 39
0.004
  6
CONTINUOUS
 10
0.00000
 20
0.00000
 30
 0
 11
1.75000
 21
0.00000
  0
LINE
  8
Contour
 62
   7
 39
0.004
  6
CONTINUOUS
 10
1.75000
 20
0.00000
 30
 0
 11
1.75000
 21
0.00000
  0
LINE
  8
Contour
 62
   7
 39
0.004
  6
CONTINUOUS
 10
1.75000
 20
0.00000
 30
 0
 11
1.75000
 21
8.73500
  0
LINE
  8
Contour
 62
   7
 39
0.004
  6
CONTINUOUS
 10
1.75000
 20
8.73500
 30
 0
 11
1.75000
 21
8.73500
  0
LINE
  8
Engraving
 62
   255
 39
0.016
  6
CONTINUOUS
 10
0.66083
 20
3.62579
 30
 0
 11
0.66083
 21
3.72028
  0
LINE
  8
Engraving
 62
   255
 39
0.016
  6
CONTINUOUS
 10
0.66083
 20
3.72028
 30
 0
 11
0.69154
 21
3.65413
  0
LINE
  8
Engraving
 62
   255
 39
0.016
  6
CONTINUOUS
 10
0.69154
 20
3.65413
 30
 0
 11
0.72224
 21
3.72028
  0
LINE
  8
Engraving
 62
   255
 39
0.016
  6
CONTINUOUS
 10
0.72224
 20
3.72028
 30
 0
 11
0.72224
 21
3.62579
  0
LINE
  8
Engraving
 62
   255
 39
0.016
  6
CONTINUOUS
 10
0.74902
 20
3.62579
 30
 0
 11
0.77736
 21
3.72028
  0
LINE
  8
Engraving
 62
   255
 39
0.016
  6
CONTINUOUS
 10
0.77736
 20
3.72028
 30
 0
 11
0.80571
 21
3.62579
  0
LINE
  8
Engraving
 62
   255
 39
0.016
  6
CONTINUOUS
 10
0.75846
 20
3.65413
 30
 0
 11
0.79626
 21
3.65413
  0
ARC
  8
Engraving
 62
   255
 39
0.016
  6
CONTINUOUS
 10
0.85610
 20
3.64941
 30
 0
 40
0.02362
 50
180.00000
 51
360.00000
  0
ARC
  8
Engraving
 62
   255
 39
0.016
  6
CONTINUOUS
 10
0.85622
 20
3.64953
 30
 0
 40
0.02350
 50
-0.28792
 51
90.28792
  0
ARC
  8
Engraving
 62
   255
 39
0.016
  6
CONTINUOUS
 10
0.85610
 20
3.69665
 30
 0
 40
0.02362
 50
90.00000
 51
-90.00000
  0
ARC
  8
Engraving
 62
   255
 39
0.016
  6
CONTINUOUS
 10
0.85622
 20
3.69677
 30
 0
 40
0.02350
 50
359.71208
 51
90.28792
  0
LINE
  8
Engraving
 62
   255
 39
0.016
  6
CONTINUOUS
 10
0.90650
 20
3.72028
 30
 0
 11
0.94902
 21
3.72028
  0
LINE
  8
Engraving
 62
   255
 39
0.016
  6
CONTINUOUS
 10
0.94902
 20
3.72028
 30
 0
 11
0.92776
 21
3.72028
  0
LINE
  8
Engraving
 62
   255
 39
0.016
  6
CONTINUOUS
 10
0.92776
 20
3.72028
 30
 0
 11
0.92776
 21
3.62579
  0
LINE
  8
Engraving
 62
   255
 39
0.016
  6
CONTINUOUS
 10
1.01831
 20
3.72028
 30
 0
 11
0.97579
 21
3.72028
  0
LINE
  8
Engraving
 62
   255
 39
0.016
  6
CONTINUOUS
 10
0.97579
 20
3.72028
 30
 0
 11
0.97579
 21
3.62579
  0
LINE
  8
Engraving
 62
   255
 39
0.016
  6
CONTINUOUS
 10
0.97579
 20
3.62579
 30
 0
 11
1.01831
 21
3.62579
  0
LINE
  8
Engraving
 62
   255
 39
0.016
  6
CONTINUOUS
 10
0.97579
 20
3.67303
 30
 0
 11
1.01122
 21
3.67303
  0
LINE
  8
Engraving
 62
   255
 39
0.016
  6
CONTINUOUS
 10
1.04429
 20
3.62579
 30
 0
 11
1.04429
 21
3.72028
  0
LINE
  8
Engraving
 62
   255
 39
0.016
  6
CONTINUOUS
 10
1.04429
 20
3.72028
 30
 0
 11
1.06555
 21
3.72028
  0
ARC
  8
Engraving
 62
   255
 39
0.016
  6
CONTINUOUS
 10
1.06555
 20
3.69665
 30
 0
 40
0.02362
 50
270.00000
 51
90.00000
  0
LINE
  8
Engraving
 62
   255
 39
0.016
  6
CONTINUOUS
 10
1.06555
 20
3.67303
 30
 0
 11
1.04429
 21
3.67303
  0
LINE
  8
Engraving
 62
   255
 39
0.016
  6
CONTINUOUS
 10
1.04429
 20
3.67303
 30
 0
 11
1.06555
 21
3.67303
  0
LINE
  8
Engraving
 62
   255
 39
0.016
  6
CONTINUOUS
 10
1.06555
 20
3.67303
 30
 0
 11
1.08917
 21
3.62579
  0
ARC
  8
Engraving
 62
   255
 39
0.016
  6
CONTINUOUS
 10
0.60335
 20
0.37480
 30
 0
 40
0.02047
 50
0.00000
 51
180.00000
  0
LINE
  8
Engraving
 62
   255
 39
0.016
  6
CONTINUOUS
 10
0.58287
 20
0.37480
 30
 0
 11
0.58287
 21
0.32126
  0
ARC
  8
Engraving
 62
   255
 39
0.016
  6
CONTINUOUS
 10
0.60335
 20
0.32126
 30
 0
 40
0.02047
 50
180.00000
 51
360.00000
  0
ARC
  8
Engraving
 62
   255
 39
0.016
  6
CONTINUOUS
 10
0.67185
 20
0.37402
 30
 0
 40
0.02126
 50
0.00000
 51
180.00000
  0
LINE
  8
Engraving
 62
   255
 39
0.016
  6
CONTINUOUS
 10
0.65059
 20
0.37402
 30
 0
 11
0.65059
 21
0.32205
  0
ARC
  8
Engraving
 62
   255
 39
0.016
  6
CONTINUOUS
 10
0.67185
 20
0.32205
 30
 0
 40
0.02126
 50
180.00000
 51
360.00000
  0
LINE
  8
Engraving
 62
   255
 39
0.016
  6
CONTINUOUS
 10
0.69311
 20
0.32205
 30
 0
 11
0.69311
 21
0.34567
  0
LINE
  8
Engraving
 62
   255
 39
0.016
  6
CONTINUOUS
 10
0.69311
 20
0.34567
 30
 0
 11
0.67185
 21
0.34567
  0
ARC
  8
Engraving
 62
   255
 39
0.016
  6
CONTINUOUS
 10
0.74350
 20
0.32441
 30
 0
 40
0.02362
 50
180.00000
 51
360.00000
  0
ARC
  8
Engraving
 62
   255
 39
0.016
  6
CONTINUOUS
 10
0.74362
 20
0.32453
 30
 0
 40
0.02350
 50
-0.28792
 51
90.28792
  0
ARC
  8
Engraving
 62
   255
 39
0.016
  6
CONTINUOUS
 10
0.74350
 20
0.37165
 30
 0
 40
0.02362
 50
90.00000
 51
-90.00000
  0
ARC
  8
Engraving
 62
   255
 39
0.016
  6
CONTINUOUS
 10
0.74362
 20
0.37177
 30
 0
 40
0.02350
 50
359.71208
 51
90.28792
  0
LINE
  8
Engraving
 62
   255
 39
0.016
  6
CONTINUOUS
 10
0.86949
 20
0.30079
 30
 0
 11
0.86949
 21
0.39528
  0
LINE
  8
Engraving
 62
   255
 39
0.016
  6
CONTINUOUS
 10
0.86949
 20
0.39528
 30
 0
 11
0.90020
 21
0.32913
  0
LINE
  8
Engraving
 62
   255
 39
0.016
  6
CONTINUOUS
 10
0.90020
 20
0.32913
 30
 0
 11
0.93091
 21
0.39528
  0
LINE
  8
Engraving
 62
   255
 39
0.016
  6
CONTINUOUS
 10
0.93091
 20
0.39528
 30
 0
 11
0.93091
 21
0.30079
  0
LINE
  8
Engraving
 62
   255
 39
0.016
  6
CONTINUOUS
 10
0.95768
 20
0.39528
 30
 0
 11
0.95768
 21
0.30079
  0
LINE
  8
Engraving
 62
   255
 39
0.016
  6
CONTINUOUS
 10
0.98445
 20
0.39528
 30
 0
 11
1.02697
 21
0.30079
  0
LINE
  8
Engraving
 62
   255
 39
0.016
  6
CONTINUOUS
 10
0.98445
 20
0.30079
 30
 0
 11
1.02697
 21
0.39528
  0
LINE
  8
Engraving
 62
   255
 39
0.016
  6
CONTINUOUS
 10
1.09626
 20
0.39528
 30
 0
 11
1.05374
 21
0.39528
  0
LINE
  8
Engraving
 62
   255
 39
0.016
  6
CONTINUOUS
 10
1.05374
 20
0.39528
 30
 0
 11
1.05374
 21
0.30079
  0
LINE
  8
Engraving
 62
   255
 39
0.016
  6
CONTINUOUS
 10
1.05374
 20
0.30079
 30
 0
 11
1.09626
 21
0.30079
  0
LINE
  8
Engraving
 62
   255
 39
0.016
  6
CONTINUOUS
 10
1.05374
 20
0.34803
 30
 0
 11
1.08917
 21
0.34803
  0
LINE
  8
Engraving
 62
   255
 39
0.016
  6
CONTINUOUS
 10
1.12224
 20
0.30079
 30
 0
 11
1.12224
 21
0.39528
  0
LINE
  8
Engraving
 62
   255
 39
0.016
  6
CONTINUOUS
 10
1.12224
 20
0.39528
 30
 0
 11
1.14350
 21
0.39528
  0
ARC
  8
Engraving
 62
   255
 39
0.016
  6
CONTINUOUS
 10
1.14350
 20
0.37165
 30
 0
 40
0.02362
 50
270.00000
 51
90.00000
  0
LINE
  8
Engraving
 62
   255
 39
0.016
  6
CONTINUOUS
 10
1.14350
 20
0.34803
 30
 0
 11
1.12224
 21
0.34803
  0
LINE
  8
Engraving
 62
   255
 39
0.016
  6
CONTINUOUS
 10
1.12224
 20
0.34803
 30
 0
 11
1.14350
 21
0.34803
  0
LINE
  8
Engraving
 62
   255
 39
0.016
  6
CONTINUOUS
 10
1.14350
 20
0.34803
 30
 0
 11
1.16713
 21
0.30079
  0
LINE
  8
Engraving
 62
   255
 39
0.016
  6
CONTINUOUS
 10
0.77894
 20
8.59528
 30
 0
 11
0.77894
 21
8.50079
  0
LINE
  8
Engraving
 62
   255
 39
0.016
  6
CONTINUOUS
 10
0.80571
 20
8.50079
 30
 0
 11
0.80571
 21
8.59528
  0
LINE
  8
Engraving
 62
   255
 39
0.016
  6
CONTINUOUS
 10
0.80571
 20
8.59528
 30
 0
 11
0.84823
 21
8.50079
  0
LINE
  8
Engraving
 62
   255
 39
0.016
  6
CONTINUOUS
 10
0.84823
 20
8.50079
 30
 0
 11
0.84823
 21
8.59528
  0
LINE
  8
Engraving
 62
   255
 39
0.016
  6
CONTINUOUS
 10
0.94980
 20
8.57165
 30
 0
 11
0.97106
 21
8.59528
  0
LINE
  8
Engraving
 62
   255
 39
0.016
  6
CONTINUOUS
 10
0.97106
 20
8.59528
 30
 0
 11
0.97106
 21
8.50079
  0
LINE
  8
Engraving
 62
   255
 39
0.016
  6
CONTINUOUS
 10
1.19433
 20
2.34528
 30
 0
 11
1.19433
 21
2.25079
  0
LINE
  8
Engraving
 62
   255
 39
0.016
  6
CONTINUOUS
 10
1.22110
 20
2.25079
 30
 0
 11
1.22110
 21
2.34528
  0
LINE
  8
Engraving
 62
   255
 39
0.016
  6
CONTINUOUS
 10
1.22110
 20
2.34528
 30
 0
 11
1.26362
 21
2.25079
  0
LINE
  8
Engraving
 62
   255
 39
0.016
  6
CONTINUOUS
 10
1.26362
 20
2.25079
 30
 0
 11
1.26362
 21
2.34528
  0
ARC
  8
Engraving
 62
   255
 39
0.016
  6
CONTINUOUS
 10
1.38461
 20
2.32579
 30
 0
 40
0.01949
 50
91.50439
 51
-174.78461
  0
ARC
  8
Engraving
 62
   255
 39
0.016
  6
CONTINUOUS
 10
1.38508
 20
2.32472
 30
 0
 40
0.02059
 50
330.44533
 51
92.74196
  0
LINE
  8
Engraving
 62
   255
 39
0.016
  6
CONTINUOUS
 10
1.40299
 20
2.31457
 30
 0
 11
1.36520
 21
2.25079
  0
LINE
  8
Engraving
 62
   255
 39
0.016
  6
CONTINUOUS
 10
1.36520
 20
2.25079
 30
 0
 11
1.40535
 21
2.25079
  0
LINE
  8
Engraving
 62
   255
 39
0.016
  6
CONTINUOUS
 10
0.35394
 20
2.34528
 30
 0
 11
0.35394
 21
2.25079
  0
LINE
  8
Engraving
 62
   255
 39
0.016
  6
CONTINUOUS
 10
0.38071
 20
2.25079
 30
 0
 11
0.38071
 21
2.34528
  0
LINE
  8
Engraving
 62
   255
 39
0.016
  6
CONTINUOUS
 10
0.38071
 20
2.34528
 30
 0
 11
0.42323
 21
2.25079
  0
LINE
  8
Engraving
 62
   255
 39
0.016
  6
CONTINUOUS
 10
0.42323
 20
2.25079
 30
 0
 11
0.42323
 21
2.34528
  0
LINE
  8
Engraving
 62
   255
 39
0.016
  6
CONTINUOUS
 10
0.52480
 20
2.32165
 30
 0
 11
0.54606
 21
2.34528
  0
LINE
  8
Engraving
 62
   255
 39
0.016
  6
CONTINUOUS
 10
0.54606
 20
2.34528
 30
 0
 11
0.54606
 21
2.25079
  0
LINE
  8
Engraving
 62
   255
 39
0.016
  6
CONTINUOUS
 10
0.76567
 20
5.34528
 30
 0
 11
0.76567
 21
5.25079
  0
LINE
  8
Engraving
 62
   255
 39
0.016
  6
CONTINUOUS
 10
0.79244
 20
5.25079
 30
 0
 11
0.79244
 21
5.34528
  0
LINE
  8
Engraving
 62
   255
 39
0.016
  6
CONTINUOUS
 10
0.79244
 20
5.34528
 30
 0
 11
0.83496
 21
5.25079
  0
LINE
  8
Engraving
 62
   255
 39
0.016
  6
CONTINUOUS
 10
0.83496
 20
5.25079
 30
 0
 11
0.83496
 21
5.34528
  0
ARC
  8
Engraving
 62
   255
 39
0.016
  6
CONTINUOUS
 10
0.95823
 20
5.32500
 30
 0
 40
0.01937
 50
434.80614
 51
175.92268
  0
ARC
  8
Engraving
 62
   255
 39
0.016
  6
CONTINUOUS
 10
0.95783
 20
5.32350
 30
 0
 40
0.02091
 50
263.39742
 51
74.83943
  0
ARC
  8
Engraving
 62
   255
 39
0.016
  6
CONTINUOUS
 10
0.95862
 20
5.27717
 30
 0
 40
0.02579
 50
285.86128
 51
97.10332
  0
ARC
  8
Engraving
 62
   255
 39
0.016
  6
CONTINUOUS
 10
0.95917
 20
5.27417
 30
 0
 40
0.02276
 50
185.36509
 51
-73.41468
  0
LINE
  8
Engraving
 62
   255
 39
0.016
  6
CONTINUOUS
 10
0.34067
 20
1.34528
 30
 0
 11
0.34067
 21
1.25079
  0
LINE
  8
Engraving
 62
   255
 39
0.016
  6
CONTINUOUS
 10
0.36744
 20
1.25079
 30
 0
 11
0.36744
 21
1.34528
  0
LINE
  8
Engraving
 62
   255
 39
0.016
  6
CONTINUOUS
 10
0.36744
 20
1.34528
 30
 0
 11
0.40996
 21
1.25079
  0
LINE
  8
Engraving
 62
   255
 39
0.016
  6
CONTINUOUS
 10
0.40996
 20
1.25079
 30
 0
 11
0.40996
 21
1.34528
  0
ARC
  8
Engraving
 62
   255
 39
0.016
  6
CONTINUOUS
 10
0.53323
 20
1.32500
 30
 0
 40
0.01937
 50
434.80614
 51
175.92268
  0
ARC
  8
Engraving
 62
   255
 39
0.016
  6
CONTINUOUS
 10
0.53283
 20
1.32350
 30
 0
 40
0.02091
 50
263.39742
 51
74.83943
  0
ARC
  8
Engraving
 62
   255
 39
0.016
  6
CONTINUOUS
 10
0.53362
 20
1.27717
 30
 0
 40
0.02579
 50
285.86128
 51
97.10332
  0
ARC
  8
Engraving
 62
   255
 39
0.016
  6
CONTINUOUS
 10
0.53417
 20
1.27417
 30
 0
 40
0.02276
 50
185.36509
 51
-73.41468
  0
LINE
  8
Engraving
 62
   255
 39
0.016
  6
CONTINUOUS
 10
0.76933
 20
6.97028
 30
 0
 11
0.76933
 21
6.87579
  0
LINE
  8
Engraving
 62
   255
 39
0.016
  6
CONTINUOUS
 10
0.79610
 20
6.87579
 30
 0
 11
0.79610
 21
6.97028
  0
LINE
  8
Engraving
 62
   255
 39
0.016
  6
CONTINUOUS
 10
0.79610
 20
6.97028
 30
 0
 11
0.83862
 21
6.87579
  0
LINE
  8
Engraving
 62
   255
 39
0.016
  6
CONTINUOUS
 10
0.83862
 20
6.87579
 30
 0
 11
0.83862
 21
6.97028
  0
ARC
  8
Engraving
 62
   255
 39
0.016
  6
CONTINUOUS
 10
0.95961
 20
6.95079
 30
 0
 40
0.01949
 50
91.50439
 51
-174.78461
  0
ARC
  8
Engraving
 62
   255
 39
0.016
  6
CONTINUOUS
 10
0.96008
 20
6.94972
 30
 0
 40
0.02059
 50
330.44533
 51
92.74196
  0
LINE
  8
Engraving
 62
   255
 39
0.016
  6
CONTINUOUS
 10
0.97799
 20
6.93957
 30
 0
 11
0.94020
 21
6.87579
  0
LINE
  8
Engraving
 62
   255
 39
0.016
  6
CONTINUOUS
 10
0.94020
 20
6.87579
 30
 0
 11
0.98035
 21
6.87579
  0
ARC
  8
Engraving
 62
   255
 39
0.016
  6
CONTINUOUS
 10
1.12598
 20
1.27205
 30
 0
 40
0.02126
 50
180.00000
 51
360.00000
  0
LINE
  8
Engraving
 62
   255
 39
0.016
  6
CONTINUOUS
 10
1.14724
 20
1.27205
 30
 0
 11
1.14724
 21
1.32402
  0
ARC
  8
Engraving
 62
   255
 39
0.016
  6
CONTINUOUS
 10
1.12598
 20
1.32402
 30
 0
 40
0.02126
 50
0.00000
 51
180.00000
  0
LINE
  8
Engraving
 62
   255
 39
0.016
  6
CONTINUOUS
 10
1.10472
 20
1.32402
 30
 0
 11
1.10472
 21
1.27205
  0
LINE
  8
Engraving
 62
   255
 39
0.016
  6
CONTINUOUS
 10
1.17402
 20
1.34528
 30
 0
 11
1.17402
 21
1.27205
  0
ARC
  8
Engraving
 62
   255
 39
0.016
  6
CONTINUOUS
 10
1.19528
 20
1.27205
 30
 0
 40
0.02126
 50
180.00000
 51
360.00000
  0
LINE
  8
Engraving
 62
   255
 39
0.016
  6
CONTINUOUS
 10
1.21654
 20
1.27205
 30
 0
 11
1.21654
 21
1.34528
  0
LINE
  8
Engraving
 62
   255
 39
0.016
  6
CONTINUOUS
 10
1.24331
 20
1.34528
 30
 0
 11
1.28583
 21
1.34528
  0
LINE
  8
Engraving
 62
   255
 39
0.016
  6
CONTINUOUS
 10
1.28583
 20
1.34528
 30
 0
 11
1.26457
 21
1.34528
  0
LINE
  8
Engraving
 62
   255
 39
0.016
  6
CONTINUOUS
 10
1.26457
 20
1.34528
 30
 0
 11
1.26457
 21
1.25079
  0
LINE
  8
Engraving
 62
   255
 39
0.016
  6
CONTINUOUS
 10
1.31181
 20
1.29803
 30
 0
 11
1.33307
 21
1.29803
  0
ARC
  8
Engraving
 62
   255
 39
0.016
  6
CONTINUOUS
 10
1.33307
 20
1.32165
 30
 0
 40
0.02362
 50
-90.00000
 51
90.00000
  0
LINE
  8
Engraving
 62
   255
 39
0.016
  6
CONTINUOUS
 10
1.33307
 20
1.34528
 30
 0
 11
1.31181
 21
1.34528
  0
LINE
  8
Engraving
 62
   255
 39
0.016
  6
CONTINUOUS
 10
1.31181
 20
1.34528
 30
 0
 11
1.31181
 21
1.25079
  0
LINE
  8
Engraving
 62
   255
 39
0.016
  6
CONTINUOUS
 10
1.38346
 20
1.34528
 30
 0
 11
1.38346
 21
1.27205
  0
ARC
  8
Engraving
 62
   255
 39
0.016
  6
CONTINUOUS
 10
1.40472
 20
1.27205
 30
 0
 40
0.02126
 50
180.00000
 51
360.00000
  0
LINE
  8
Engraving
 62
   255
 39
0.016
  6
CONTINUOUS
 10
1.42598
 20
1.27205
 30
 0
 11
1.42598
 21
1.34528
  0
LINE
  8
Engraving
 62
   255
 39
0.016
  6
CONTINUOUS
 10
1.45276
 20
1.34528
 30
 0
 11
1.49528
 21
1.34528
  0
LINE
  8
Engraving
 62
   255
 39
0.016
  6
CONTINUOUS
 10
1.49528
 20
1.34528
 30
 0
 11
1.47402
 21
1.34528
  0
LINE
  8
Engraving
 62
   255
 39
0.016
  6
CONTINUOUS
 10
1.47402
 20
1.34528
 30
 0
 11
1.47402
 21
1.25079
  0
CIRCLE
  8
Contour
 62
   7
 39
0.004
  6
CONTINUOUS
 10
0.45000
 20
1.90000
 30
 0
 40
0.18701
  0
CIRCLE
  8
Contour
 62
   7
 39
0.004
  6
CONTINUOUS
 10
0.45000
 20
0.90000
 30
 0
 40
0.18701
  0
CIRCLE
  8
Contour
 62
   7
 39
0.004
  6
CONTINUOUS
 10
1.30000
 20
0.90000
 30
 0
 40
0.18701
  0
CIRCLE
  8
Contour
 62
   7
 39
0.004
  6
CONTINUOUS
 10
1.50000
 20
0.25000
 30
 0
 40
0.10827
  0
CIRCLE
  8
Contour
 62
   7
 39
0.004
  6
CONTINUOUS
 10
1.50000
 20
8.50000
 30
 0
 40
0.10827
  0
CIRCLE
  8
Contour
 62
   7
 39
0.004
  6
CONTINUOUS
 10
0.25000
 20
8.50000
 30
 0
 40
0.10827
  0
CIRCLE
  8
Contour
 62
   7
 39
0.004
  6
CONTINUOUS
 10
0.25000
 20
0.25000
 30
 0
 40
0.10827
  0
CIRCLE
  8
Contour
 62
   7
 39
0.004
  6
CONTINUOUS
 10
0.87500
 20
4.57500
 30
 0
 40
0.20669
  0
CIRCLE
  8
Contour
 62
   7
 39
0.004
  6
CONTINUOUS
 10
0.87500
 20
7.82500
 30
 0
 40
0.20669
  0
CIRCLE
  8
Contour
 62
   7
 39
0.004
  6
CONTINUOUS
 10
0.87500
 20
2.95000
 30
 0
 40
0.20669
  0
CIRCLE
  8
Contour
 62
   7
 39
0.004
  6
CONTINUOUS
 10
0.87500
 20
6.20000
 30
 0
 40
0.20669
  0
CIRCLE
  8
Contour
 62
   7
 39
0.004
  6
CONTINUOUS
 10
1.30000
 20
1.90000
 30
 0
 40
0.18701
  0
LINE
  8
Reference_points
 62
   1
 39
0.004
  6
CONTINUOUS
 10
-0.03937
 20
0.00000
 30
 0
 11
0.03937
 21
0.00000
  0
LINE
  8
Reference_points
 62
   1
 39
0.004
  6
CONTINUOUS
 10
0.00000
 20
-0.03937
 30
 0
 11
0.00000
 21
0.03937
  0
LINE
  8
Reference_points
 62
   1
 39
0.004
  6
CONTINUOUS
 10
0.83563
 20
3.67500
 30
 0
 11
0.91437
 21
3.67500
  0
LINE
  8
Reference_points
 62
   1
 39
0.004
  6
CONTINUOUS
 10
0.87500
 20
3.63563
 30
 0
 11
0.87500
 21
3.71437
  0
LINE
  8
Reference_points
 62
   1
 39
0.004
  6
CONTINUOUS
 10
0.41063
 20
1.90000
 30
 0
 11
0.48937
 21
1.90000
  0
LINE
  8
Reference_points
 62
   1
 39
0.004
  6
CONTINUOUS
 10
0.45000
 20
1.86063
 30
 0
 11
0.45000
 21
1.93937
  0
LINE
  8
Reference_points
 62
   1
 39
0.004
  6
CONTINUOUS
 10
0.41063
 20
0.90000
 30
 0
 11
0.48937
 21
0.90000
  0
LINE
  8
Reference_points
 62
   1
 39
0.004
  6
CONTINUOUS
 10
0.45000
 20
0.86063
 30
 0
 11
0.45000
 21
0.93937
  0
LINE
  8
Reference_points
 62
   1
 39
0.004
  6
CONTINUOUS
 10
1.26063
 20
0.90000
 30
 0
 11
1.33937
 21
0.90000
  0
LINE
  8
Reference_points
 62
   1
 39
0.004
  6
CONTINUOUS
 10
1.30000
 20
0.86063
 30
 0
 11
1.30000
 21
0.93937
  0
LINE
  8
Reference_points
 62
   1
 39
0.004
  6
CONTINUOUS
 10
0.83563
 20
0.35000
 30
 0
 11
0.91437
 21
0.35000
  0
LINE
  8
Reference_points
 62
   1
 39
0.004
  6
CONTINUOUS
 10
0.87500
 20
0.31063
 30
 0
 11
0.87500
 21
0.38937
  0
LINE
  8
Reference_points
 62
   1
 39
0.004
  6
CONTINUOUS
 10
1.46063
 20
0.25000
 30
 0
 11
1.53937
 21
0.25000
  0
LINE
  8
Reference_points
 62
   1
 39
0.004
  6
CONTINUOUS
 10
1.50000
 20
0.21063
 30
 0
 11
1.50000
 21
0.28937
  0
LINE
  8
Reference_points
 62
   1
 39
0.004
  6
CONTINUOUS
 10
1.46063
 20
8.50000
 30
 0
 11
1.53937
 21
8.50000
  0
LINE
  8
Reference_points
 62
   1
 39
0.004
  6
CONTINUOUS
 10
1.50000
 20
8.46063
 30
 0
 11
1.50000
 21
8.53937
  0
LINE
  8
Reference_points
 62
   1
 39
0.004
  6
CONTINUOUS
 10
0.21063
 20
8.50000
 30
 0
 11
0.28937
 21
8.50000
  0
LINE
  8
Reference_points
 62
   1
 39
0.004
  6
CONTINUOUS
 10
0.25000
 20
8.46063
 30
 0
 11
0.25000
 21
8.53937
  0
LINE
  8
Reference_points
 62
   1
 39
0.004
  6
CONTINUOUS
 10
0.21063
 20
0.25000
 30
 0
 11
0.28937
 21
0.25000
  0
LINE
  8
Reference_points
 62
   1
 39
0.004
  6
CONTINUOUS
 10
0.25000
 20
0.21063
 30
 0
 11
0.25000
 21
0.28937
  0
LINE
  8
Reference_points
 62
   1
 39
0.004
  6
CONTINUOUS
 10
0.83563
 20
4.57500
 30
 0
 11
0.91437
 21
4.57500
  0
LINE
  8
Reference_points
 62
   1
 39
0.004
  6
CONTINUOUS
 10
0.87500
 20
4.53563
 30
 0
 11
0.87500
 21
4.61437
  0
LINE
  8
Reference_points
 62
   1
 39
0.004
  6
CONTINUOUS
 10
0.83563
 20
7.82500
 30
 0
 11
0.91437
 21
7.82500
  0
LINE
  8
Reference_points
 62
   1
 39
0.004
  6
CONTINUOUS
 10
0.87500
 20
7.78563
 30
 0
 11
0.87500
 21
7.86437
  0
LINE
  8
Reference_points
 62
   1
 39
0.004
  6
CONTINUOUS
 10
0.83563
 20
8.55000
 30
 0
 11
0.91437
 21
8.55000
  0
LINE
  8
Reference_points
 62
   1
 39
0.004
  6
CONTINUOUS
 10
0.87500
 20
8.51063
 30
 0
 11
0.87500
 21
8.58937
  0
LINE
  8
Reference_points
 62
   1
 39
0.004
  6
CONTINUOUS
 10
1.26063
 20
2.30000
 30
 0
 11
1.33937
 21
2.30000
  0
LINE
  8
Reference_points
 62
   1
 39
0.004
  6
CONTINUOUS
 10
1.30000
 20
2.26063
 30
 0
 11
1.30000
 21
2.33937
  0
LINE
  8
Reference_points
 62
   1
 39
0.004
  6
CONTINUOUS
 10
0.41063
 20
2.30000
 30
 0
 11
0.48937
 21
2.30000
  0
LINE
  8
Reference_points
 62
   1
 39
0.004
  6
CONTINUOUS
 10
0.45000
 20
2.26063
 30
 0
 11
0.45000
 21
2.33937
  0
LINE
  8
Reference_points
 62
   1
 39
0.004
  6
CONTINUOUS
 10
0.83563
 20
2.95000
 30
 0
 11
0.91437
 21
2.95000
  0
LINE
  8
Reference_points
 62
   1
 39
0.004
  6
CONTINUOUS
 10
0.87500
 20
2.91063
 30
 0
 11
0.87500
 21
2.98937
  0
LINE
  8
Reference_points
 62
   1
 39
0.004
  6
CONTINUOUS
 10
0.83563
 20
5.30000
 30
 0
 11
0.91437
 21
5.30000
  0
LINE
  8
Reference_points
 62
   1
 39
0.004
  6
CONTINUOUS
 10
0.87500
 20
5.26063
 30
 0
 11
0.87500
 21
5.33937
  0
LINE
  8
Reference_points
 62
   1
 39
0.004
  6
CONTINUOUS
 10
0.41063
 20
1.30000
 30
 0
 11
0.48937
 21
1.30000
  0
LINE
  8
Reference_points
 62
   1
 39
0.004
  6
CONTINUOUS
 10
0.45000
 20
1.26063
 30
 0
 11
0.45000
 21
1.33937
  0
LINE
  8
Reference_points
 62
   1
 39
0.004
  6
CONTINUOUS
 10
0.83563
 20
6.20000
 30
 0
 11
0.91437
 21
6.20000
  0
LINE
  8
Reference_points
 62
   1
 39
0.004
  6
CONTINUOUS
 10
0.87500
 20
6.16063
 30
 0
 11
0.87500
 21
6.23937
  0
LINE
  8
Reference_points
 62
   1
 39
0.004
  6
CONTINUOUS
 10
0.83563
 20
6.92500
 30
 0
 11
0.91437
 21
6.92500
  0
LINE
  8
Reference_points
 62
   1
 39
0.004
  6
CONTINUOUS
 10
0.87500
 20
6.88563
 30
 0
 11
0.87500
 21
6.96437
  0
LINE
  8
Reference_points
 62
   1
 39
0.004
  6
CONTINUOUS
 10
1.26063
 20
1.90000
 30
 0
 11
1.33937
 21
1.90000
  0
LINE
  8
Reference_points
 62
   1
 39
0.004
  6
CONTINUOUS
 10
1.30000
 20
1.86063
 30
 0
 11
1.30000
 21
1.93937
  0
LINE
  8
Reference_points
 62
   1
 39
0.004
  6
CONTINUOUS
 10
1.26063
 20
1.30000
 30
 0
 11
1.33937
 21
1.30000
  0
LINE
  8
Reference_points
 62
   1
 39
0.004
  6
CONTINUOUS
 10
1.30000
 20
1.26063
 30
 0
 11
1.30000
 21
1.33937
  0
ENDSEC
  0
EOF
