  0
SECTION
  2
HEADER
  9
$MEASUREMENT
  70
  0
  9
$INSUNITS
  70
  1
  0
ENDSEC
  0
SECTION
  2
TABLES
  0
TABLE
  2
LTYPE
 70
     1
  0
LTYPE
  2
CONTINUOUS
 70
    64
  3
Ausgezogene Linie
 72
    65
 73
     0
 40
0.0
  0
ENDTAB
  0
TABLE
  2
LAYER
 70
     3
  0
LAYER
  2
Contour
 70
    64
 62
     7
  6
CONTINUOUS
  0
LAYER
  2
Engraving
 70
    64
 62
     7
  6
CONTINUOUS
  0
LAYER
  2
Reference_points
 70
    64
 62
     1
  6
CONTINUOUS
  0
ENDTAB
  0
TABLE
  2
STYLE
 70
     1
  0
STYLE
  2
TXT
 70
    64
 40
0.0
 41
1.0
 50
0.0
 71
     0
 42
3.500000
  3
TXT
  0
ENDTAB
  0
ENDSEC
  0
SECTION
  2
BLOCKS
  0
ENDSEC
  0
SECTION
  2
ENTITIES
  0
LINE
  8
Contour
 62
   7
 39
0.004
  6
CONTINUOUS
 10
1.71500
 20
8.73500
 30
 0
 11
0.02000
 21
8.73500
  0
ARC
  8
Contour
 62
   7
 39
0.004
  6
CONTINUOUS
 10
0.02000
 20
8.71500
 30
 0
 40
0.02000
 50
90.00000
 51
180.00000
  0
LINE
  8
Contour
 62
   7
 39
0.004
  6
CONTINUOUS
 10
0.00000
 20
8.71500
 30
 0
 11
0.00000
 21
0.02000
  0
ARC
  8
Contour
 62
   7
 39
0.004
  6
CONTINUOUS
 10
0.02000
 20
0.02000
 30
 0
 40
0.02000
 50
180.00000
 51
270.00000
  0
LINE
  8
Contour
 62
   7
 39
0.004
  6
CONTINUOUS
 10
0.02000
 20
0.00000
 30
 0
 11
1.71500
 21
0.00000
  0
ARC
  8
Contour
 62
   7
 39
0.004
  6
CONTINUOUS
 10
1.71500
 20
0.02000
 30
 0
 40
0.02000
 50
-90.00000
 51
0.00000
  0
LINE
  8
Contour
 62
   7
 39
0.004
  6
CONTINUOUS
 10
1.73500
 20
0.02000
 30
 0
 11
1.73500
 21
8.71500
  0
ARC
  8
Contour
 62
   7
 39
0.004
  6
CONTINUOUS
 10
1.71500
 20
8.71500
 30
 0
 40
0.02000
 50
0.00000
 51
90.00000
  0
LINE
  8
Engraving
 62
   255
 39
0.008
  6
CONTINUOUS
 10
0.07429
 20
0.59500
 30
 0
 11
0.10689
 21
0.70366
  0
LINE
  8
Engraving
 62
   255
 39
0.008
  6
CONTINUOUS
 10
0.10689
 20
0.70366
 30
 0
 11
0.13949
 21
0.59500
  0
LINE
  8
Engraving
 62
   255
 39
0.008
  6
CONTINUOUS
 10
0.08516
 20
0.62760
 30
 0
 11
0.12862
 21
0.62760
  0
LINE
  8
Engraving
 62
   255
 39
0.008
  6
CONTINUOUS
 10
0.17028
 20
0.59500
 30
 0
 11
0.17028
 21
0.70366
  0
LINE
  8
Engraving
 62
   255
 39
0.008
  6
CONTINUOUS
 10
0.17028
 20
0.70366
 30
 0
 11
0.21917
 21
0.59500
  0
LINE
  8
Engraving
 62
   255
 39
0.008
  6
CONTINUOUS
 10
0.21917
 20
0.59500
 30
 0
 11
0.21917
 21
0.70366
  0
LINE
  8
Engraving
 62
   255
 39
0.008
  6
CONTINUOUS
 10
0.24996
 20
0.59500
 30
 0
 11
0.28256
 21
0.70366
  0
LINE
  8
Engraving
 62
   255
 39
0.008
  6
CONTINUOUS
 10
0.28256
 20
0.70366
 30
 0
 11
0.31516
 21
0.59500
  0
LINE
  8
Engraving
 62
   255
 39
0.008
  6
CONTINUOUS
 10
0.26083
 20
0.62760
 30
 0
 11
0.30429
 21
0.62760
  0
LINE
  8
Engraving
 62
   255
 39
0.008
  6
CONTINUOUS
 10
0.34504
 20
0.70366
 30
 0
 11
0.34504
 21
0.59500
  0
LINE
  8
Engraving
 62
   255
 39
0.008
  6
CONTINUOUS
 10
0.34504
 20
0.59500
 30
 0
 11
0.38035
 21
0.59500
  0
ARC
  8
Engraving
 62
   255
 39
0.008
  6
CONTINUOUS
 10
0.43559
 20
0.61945
 30
 0
 40
0.02445
 50
180.00000
 51
360.00000
  0
LINE
  8
Engraving
 62
   255
 39
0.008
  6
CONTINUOUS
 10
0.46004
 20
0.61945
 30
 0
 11
0.46004
 21
0.67921
  0
ARC
  8
Engraving
 62
   255
 39
0.008
  6
CONTINUOUS
 10
0.43559
 20
0.67921
 30
 0
 40
0.02445
 50
0.00000
 51
180.00000
  0
LINE
  8
Engraving
 62
   255
 39
0.008
  6
CONTINUOUS
 10
0.41114
 20
0.67921
 30
 0
 11
0.41114
 21
0.61945
  0
ARC
  8
Engraving
 62
   255
 39
0.008
  6
CONTINUOUS
 10
0.51528
 20
0.67921
 30
 0
 40
0.02445
 50
0.00000
 51
180.00000
  0
LINE
  8
Engraving
 62
   255
 39
0.008
  6
CONTINUOUS
 10
0.49083
 20
0.67921
 30
 0
 11
0.49083
 21
0.61945
  0
ARC
  8
Engraving
 62
   255
 39
0.008
  6
CONTINUOUS
 10
0.51528
 20
0.61945
 30
 0
 40
0.02445
 50
180.00000
 51
360.00000
  0
LINE
  8
Engraving
 62
   255
 39
0.008
  6
CONTINUOUS
 10
0.53972
 20
0.61945
 30
 0
 11
0.53972
 21
0.64661
  0
LINE
  8
Engraving
 62
   255
 39
0.008
  6
CONTINUOUS
 10
0.53972
 20
0.64661
 30
 0
 11
0.51528
 21
0.64661
  0
ARC
  8
Engraving
 62
   255
 39
0.008
  6
CONTINUOUS
 10
0.68461
 20
0.62217
 30
 0
 40
0.02717
 50
180.00000
 51
360.00000
  0
ARC
  8
Engraving
 62
   255
 39
0.008
  6
CONTINUOUS
 10
0.68476
 20
0.62232
 30
 0
 40
0.02701
 50
-0.33408
 51
90.33408
  0
ARC
  8
Engraving
 62
   255
 39
0.008
  6
CONTINUOUS
 10
0.68461
 20
0.67650
 30
 0
 40
0.02717
 50
90.00000
 51
-90.00000
  0
ARC
  8
Engraving
 62
   255
 39
0.008
  6
CONTINUOUS
 10
0.68476
 20
0.67665
 30
 0
 40
0.02701
 50
359.66592
 51
90.33408
  0
LINE
  8
Engraving
 62
   255
 39
0.008
  6
CONTINUOUS
 10
0.74256
 20
0.70366
 30
 0
 11
0.74256
 21
0.59500
  0
LINE
  8
Engraving
 62
   255
 39
0.008
  6
CONTINUOUS
 10
0.74256
 20
0.64933
 30
 0
 11
0.79146
 21
0.64933
  0
LINE
  8
Engraving
 62
   255
 39
0.008
  6
CONTINUOUS
 10
0.79146
 20
0.59500
 30
 0
 11
0.79146
 21
0.70366
  0
LINE
  8
Engraving
 62
   255
 39
0.008
  6
CONTINUOUS
 10
0.82224
 20
0.70366
 30
 0
 11
0.82224
 21
0.59500
  0
LINE
  8
Engraving
 62
   255
 39
0.008
  6
CONTINUOUS
 10
0.89650
 20
0.70366
 30
 0
 11
0.85303
 21
0.70366
  0
LINE
  8
Engraving
 62
   255
 39
0.008
  6
CONTINUOUS
 10
0.85303
 20
0.70366
 30
 0
 11
0.85303
 21
0.59500
  0
LINE
  8
Engraving
 62
   255
 39
0.008
  6
CONTINUOUS
 10
0.85303
 20
0.59500
 30
 0
 11
0.85303
 21
0.64933
  0
LINE
  8
Engraving
 62
   255
 39
0.008
  6
CONTINUOUS
 10
0.85303
 20
0.64933
 30
 0
 11
0.88020
 21
0.64933
  0
LINE
  8
Engraving
 62
   255
 39
0.008
  6
CONTINUOUS
 10
0.92728
 20
0.70366
 30
 0
 11
0.97618
 21
0.70366
  0
LINE
  8
Engraving
 62
   255
 39
0.008
  6
CONTINUOUS
 10
0.97618
 20
0.70366
 30
 0
 11
0.95173
 21
0.70366
  0
LINE
  8
Engraving
 62
   255
 39
0.008
  6
CONTINUOUS
 10
0.95173
 20
0.70366
 30
 0
 11
0.95173
 21
0.59500
  0
LINE
  8
Engraving
 62
   255
 39
0.008
  6
CONTINUOUS
 10
1.09299
 20
0.59500
 30
 0
 11
1.09299
 21
0.70366
  0
LINE
  8
Engraving
 62
   255
 39
0.008
  6
CONTINUOUS
 10
1.09299
 20
0.70366
 30
 0
 11
1.11744
 21
0.70366
  0
ARC
  8
Engraving
 62
   255
 39
0.008
  6
CONTINUOUS
 10
1.11744
 20
0.67650
 30
 0
 40
0.02717
 50
270.00000
 51
90.00000
  0
LINE
  8
Engraving
 62
   255
 39
0.008
  6
CONTINUOUS
 10
1.11744
 20
0.64933
 30
 0
 11
1.09299
 21
0.64933
  0
LINE
  8
Engraving
 62
   255
 39
0.008
  6
CONTINUOUS
 10
1.09299
 20
0.64933
 30
 0
 11
1.11744
 21
0.64933
  0
LINE
  8
Engraving
 62
   255
 39
0.008
  6
CONTINUOUS
 10
1.11744
 20
0.64933
 30
 0
 11
1.14461
 21
0.59500
  0
LINE
  8
Engraving
 62
   255
 39
0.008
  6
CONTINUOUS
 10
1.22429
 20
0.70366
 30
 0
 11
1.17539
 21
0.70366
  0
LINE
  8
Engraving
 62
   255
 39
0.008
  6
CONTINUOUS
 10
1.17539
 20
0.70366
 30
 0
 11
1.17539
 21
0.59500
  0
LINE
  8
Engraving
 62
   255
 39
0.008
  6
CONTINUOUS
 10
1.17539
 20
0.59500
 30
 0
 11
1.22429
 21
0.59500
  0
LINE
  8
Engraving
 62
   255
 39
0.008
  6
CONTINUOUS
 10
1.17539
 20
0.64933
 30
 0
 11
1.21614
 21
0.64933
  0
ARC
  8
Engraving
 62
   255
 39
0.008
  6
CONTINUOUS
 10
1.27953
 20
0.67921
 30
 0
 40
0.02445
 50
0.00000
 51
180.00000
  0
LINE
  8
Engraving
 62
   255
 39
0.008
  6
CONTINUOUS
 10
1.25508
 20
0.67921
 30
 0
 11
1.25508
 21
0.61945
  0
ARC
  8
Engraving
 62
   255
 39
0.008
  6
CONTINUOUS
 10
1.27953
 20
0.61945
 30
 0
 40
0.02445
 50
180.00000
 51
360.00000
  0
LINE
  8
Engraving
 62
   255
 39
0.008
  6
CONTINUOUS
 10
1.30398
 20
0.61945
 30
 0
 11
1.30398
 21
0.64661
  0
LINE
  8
Engraving
 62
   255
 39
0.008
  6
CONTINUOUS
 10
1.30398
 20
0.64661
 30
 0
 11
1.27953
 21
0.64661
  0
LINE
  8
Engraving
 62
   255
 39
0.008
  6
CONTINUOUS
 10
1.33476
 20
0.70366
 30
 0
 11
1.33476
 21
0.59500
  0
ARC
  8
Engraving
 62
   255
 39
0.008
  6
CONTINUOUS
 10
1.39272
 20
0.62217
 30
 0
 40
0.02717
 50
180.00000
 51
360.00000
  0
ARC
  8
Engraving
 62
   255
 39
0.008
  6
CONTINUOUS
 10
1.39287
 20
0.62232
 30
 0
 40
0.02701
 50
-0.33408
 51
90.33408
  0
ARC
  8
Engraving
 62
   255
 39
0.008
  6
CONTINUOUS
 10
1.39272
 20
0.67650
 30
 0
 40
0.02717
 50
90.00000
 51
-90.00000
  0
ARC
  8
Engraving
 62
   255
 39
0.008
  6
CONTINUOUS
 10
1.39287
 20
0.67665
 30
 0
 40
0.02701
 50
359.66592
 51
90.33408
  0
LINE
  8
Engraving
 62
   255
 39
0.008
  6
CONTINUOUS
 10
1.45067
 20
0.70366
 30
 0
 11
1.49957
 21
0.70366
  0
LINE
  8
Engraving
 62
   255
 39
0.008
  6
CONTINUOUS
 10
1.49957
 20
0.70366
 30
 0
 11
1.47512
 21
0.70366
  0
LINE
  8
Engraving
 62
   255
 39
0.008
  6
CONTINUOUS
 10
1.47512
 20
0.70366
 30
 0
 11
1.47512
 21
0.59500
  0
LINE
  8
Engraving
 62
   255
 39
0.008
  6
CONTINUOUS
 10
1.57925
 20
0.70366
 30
 0
 11
1.53035
 21
0.70366
  0
LINE
  8
Engraving
 62
   255
 39
0.008
  6
CONTINUOUS
 10
1.53035
 20
0.70366
 30
 0
 11
1.53035
 21
0.59500
  0
LINE
  8
Engraving
 62
   255
 39
0.008
  6
CONTINUOUS
 10
1.53035
 20
0.59500
 30
 0
 11
1.57925
 21
0.59500
  0
LINE
  8
Engraving
 62
   255
 39
0.008
  6
CONTINUOUS
 10
1.53035
 20
0.64933
 30
 0
 11
1.57110
 21
0.64933
  0
LINE
  8
Engraving
 62
   255
 39
0.008
  6
CONTINUOUS
 10
1.60913
 20
0.59500
 30
 0
 11
1.60913
 21
0.70366
  0
LINE
  8
Engraving
 62
   255
 39
0.008
  6
CONTINUOUS
 10
1.60913
 20
0.70366
 30
 0
 11
1.63358
 21
0.70366
  0
ARC
  8
Engraving
 62
   255
 39
0.008
  6
CONTINUOUS
 10
1.63358
 20
0.67650
 30
 0
 40
0.02717
 50
270.00000
 51
90.00000
  0
LINE
  8
Engraving
 62
   255
 39
0.008
  6
CONTINUOUS
 10
1.63358
 20
0.64933
 30
 0
 11
1.60913
 21
0.64933
  0
LINE
  8
Engraving
 62
   255
 39
0.008
  6
CONTINUOUS
 10
1.60913
 20
0.64933
 30
 0
 11
1.63358
 21
0.64933
  0
LINE
  8
Engraving
 62
   255
 39
0.008
  6
CONTINUOUS
 10
1.63358
 20
0.64933
 30
 0
 11
1.66075
 21
0.59500
  0
ARC
  8
Engraving
 62
   255
 39
0.008
  6
CONTINUOUS
 10
0.70453
 20
0.51512
 30
 0
 40
0.02354
 50
0.00000
 51
180.00000
  0
LINE
  8
Engraving
 62
   255
 39
0.008
  6
CONTINUOUS
 10
0.68098
 20
0.51512
 30
 0
 11
0.68098
 21
0.45354
  0
ARC
  8
Engraving
 62
   255
 39
0.008
  6
CONTINUOUS
 10
0.70453
 20
0.45354
 30
 0
 40
0.02354
 50
180.00000
 51
360.00000
  0
ARC
  8
Engraving
 62
   255
 39
0.008
  6
CONTINUOUS
 10
0.78331
 20
0.51421
 30
 0
 40
0.02445
 50
0.00000
 51
180.00000
  0
LINE
  8
Engraving
 62
   255
 39
0.008
  6
CONTINUOUS
 10
0.75886
 20
0.51421
 30
 0
 11
0.75886
 21
0.45445
  0
ARC
  8
Engraving
 62
   255
 39
0.008
  6
CONTINUOUS
 10
0.78331
 20
0.45445
 30
 0
 40
0.02445
 50
180.00000
 51
360.00000
  0
LINE
  8
Engraving
 62
   255
 39
0.008
  6
CONTINUOUS
 10
0.80776
 20
0.45445
 30
 0
 11
0.80776
 21
0.48161
  0
LINE
  8
Engraving
 62
   255
 39
0.008
  6
CONTINUOUS
 10
0.80776
 20
0.48161
 30
 0
 11
0.78331
 21
0.48161
  0
ARC
  8
Engraving
 62
   255
 39
0.008
  6
CONTINUOUS
 10
0.86571
 20
0.45717
 30
 0
 40
0.02717
 50
180.00000
 51
360.00000
  0
ARC
  8
Engraving
 62
   255
 39
0.008
  6
CONTINUOUS
 10
0.86587
 20
0.45732
 30
 0
 40
0.02701
 50
-0.33408
 51
90.33408
  0
ARC
  8
Engraving
 62
   255
 39
0.008
  6
CONTINUOUS
 10
0.86571
 20
0.51150
 30
 0
 40
0.02717
 50
90.00000
 51
-90.00000
  0
ARC
  8
Engraving
 62
   255
 39
0.008
  6
CONTINUOUS
 10
0.86587
 20
0.51165
 30
 0
 40
0.02701
 50
359.66592
 51
90.33408
  0
ARC
  8
Engraving
 62
   255
 39
0.008
  6
CONTINUOUS
 10
0.94772
 20
0.51535
 30
 0
 40
0.02228
 50
434.83371
 51
175.95042
  0
ARC
  8
Engraving
 62
   255
 39
0.008
  6
CONTINUOUS
 10
0.94709
 20
0.51366
 30
 0
 40
0.02406
 50
263.79452
 51
74.44078
  0
ARC
  8
Engraving
 62
   255
 39
0.008
  6
CONTINUOUS
 10
0.94780
 20
0.46028
 30
 0
 40
0.02969
 50
286.56101
 51
96.39896
  0
ARC
  8
Engraving
 62
   255
 39
0.008
  6
CONTINUOUS
 10
0.94882
 20
0.45693
 30
 0
 40
0.02618
 50
185.43625
 51
-73.49870
  0
LINE
  8
Engraving
 62
   255
 39
0.008
  6
CONTINUOUS
 10
1.04319
 20
0.53866
 30
 0
 11
1.00787
 21
0.45717
  0
LINE
  8
Engraving
 62
   255
 39
0.008
  6
CONTINUOUS
 10
1.00787
 20
0.45717
 30
 0
 11
1.05406
 21
0.45717
  0
LINE
  8
Engraving
 62
   255
 39
0.008
  6
CONTINUOUS
 10
1.04319
 20
0.48433
 30
 0
 11
1.04319
 21
0.43000
  0
LINE
  8
Engraving
 62
   255
 39
0.008
  6
CONTINUOUS
 10
0.82768
 20
7.38886
 30
 0
 11
0.82768
 21
7.28020
  0
LINE
  8
Engraving
 62
   255
 39
0.008
  6
CONTINUOUS
 10
0.85846
 20
7.28020
 30
 0
 11
0.85846
 21
7.38886
  0
LINE
  8
Engraving
 62
   255
 39
0.008
  6
CONTINUOUS
 10
0.85846
 20
7.38886
 30
 0
 11
0.90736
 21
7.28020
  0
LINE
  8
Engraving
 62
   255
 39
0.008
  6
CONTINUOUS
 10
0.90736
 20
7.28020
 30
 0
 11
0.90736
 21
7.38886
  0
ARC
  8
Engraving
 62
   255
 39
0.008
  6
CONTINUOUS
 10
0.71630
 20
8.31492
 30
 0
 40
0.02354
 50
0.00000
 51
180.00000
  0
LINE
  8
Engraving
 62
   255
 39
0.008
  6
CONTINUOUS
 10
0.69276
 20
8.31492
 30
 0
 11
0.69276
 21
8.25335
  0
ARC
  8
Engraving
 62
   255
 39
0.008
  6
CONTINUOUS
 10
0.71630
 20
8.25335
 30
 0
 40
0.02354
 50
180.00000
 51
360.00000
  0
LINE
  8
Engraving
 62
   255
 39
0.008
  6
CONTINUOUS
 10
0.76972
 20
8.33846
 30
 0
 11
0.76972
 21
8.22980
  0
LINE
  8
Engraving
 62
   255
 39
0.008
  6
CONTINUOUS
 10
0.76972
 20
8.22980
 30
 0
 11
0.80504
 21
8.22980
  0
ARC
  8
Engraving
 62
   255
 39
0.008
  6
CONTINUOUS
 10
0.86028
 20
8.25425
 30
 0
 40
0.02445
 50
180.00000
 51
360.00000
  0
LINE
  8
Engraving
 62
   255
 39
0.008
  6
CONTINUOUS
 10
0.88472
 20
8.25425
 30
 0
 11
0.88472
 21
8.31402
  0
ARC
  8
Engraving
 62
   255
 39
0.008
  6
CONTINUOUS
 10
0.86028
 20
8.31402
 30
 0
 40
0.02445
 50
0.00000
 51
180.00000
  0
LINE
  8
Engraving
 62
   255
 39
0.008
  6
CONTINUOUS
 10
0.83583
 20
8.31402
 30
 0
 11
0.83583
 21
8.25425
  0
ARC
  8
Engraving
 62
   255
 39
0.008
  6
CONTINUOUS
 10
0.93906
 20
8.31492
 30
 0
 40
0.02354
 50
0.00000
 51
180.00000
  0
LINE
  8
Engraving
 62
   255
 39
0.008
  6
CONTINUOUS
 10
0.91551
 20
8.31492
 30
 0
 11
0.91551
 21
8.25335
  0
ARC
  8
Engraving
 62
   255
 39
0.008
  6
CONTINUOUS
 10
0.93906
 20
8.25335
 30
 0
 40
0.02354
 50
180.00000
 51
360.00000
  0
LINE
  8
Engraving
 62
   255
 39
0.008
  6
CONTINUOUS
 10
0.99339
 20
8.33846
 30
 0
 11
0.99339
 21
8.22980
  0
LINE
  8
Engraving
 62
   255
 39
0.008
  6
CONTINUOUS
 10
0.99339
 20
8.22980
 30
 0
 11
0.99339
 21
8.26783
  0
LINE
  8
Engraving
 62
   255
 39
0.008
  6
CONTINUOUS
 10
0.99339
 20
8.26783
 30
 0
 11
1.04228
 21
8.33846
  0
LINE
  8
Engraving
 62
   255
 39
0.008
  6
CONTINUOUS
 10
1.01240
 20
8.29500
 30
 0
 11
1.04228
 21
8.22980
  0
ARC
  8
Engraving
 62
   255
 39
0.008
  6
CONTINUOUS
 10
0.70618
 20
4.30965
 30
 0
 40
0.02445
 50
180.00000
 51
360.00000
  0
LINE
  8
Engraving
 62
   255
 39
0.008
  6
CONTINUOUS
 10
0.73063
 20
4.30965
 30
 0
 11
0.73063
 21
4.36941
  0
ARC
  8
Engraving
 62
   255
 39
0.008
  6
CONTINUOUS
 10
0.70618
 20
4.36941
 30
 0
 40
0.02445
 50
0.00000
 51
180.00000
  0
LINE
  8
Engraving
 62
   255
 39
0.008
  6
CONTINUOUS
 10
0.68173
 20
4.36941
 30
 0
 11
0.68173
 21
4.30965
  0
LINE
  8
Engraving
 62
   255
 39
0.008
  6
CONTINUOUS
 10
0.76142
 20
4.39386
 30
 0
 11
0.76142
 21
4.30965
  0
ARC
  8
Engraving
 62
   255
 39
0.008
  6
CONTINUOUS
 10
0.78587
 20
4.30965
 30
 0
 40
0.02445
 50
180.00000
 51
360.00000
  0
LINE
  8
Engraving
 62
   255
 39
0.008
  6
CONTINUOUS
 10
0.81031
 20
4.30965
 30
 0
 11
0.81031
 21
4.39386
  0
LINE
  8
Engraving
 62
   255
 39
0.008
  6
CONTINUOUS
 10
0.84110
 20
4.39386
 30
 0
 11
0.89000
 21
4.39386
  0
LINE
  8
Engraving
 62
   255
 39
0.008
  6
CONTINUOUS
 10
0.89000
 20
4.39386
 30
 0
 11
0.86555
 21
4.39386
  0
LINE
  8
Engraving
 62
   255
 39
0.008
  6
CONTINUOUS
 10
0.86555
 20
4.39386
 30
 0
 11
0.86555
 21
4.28520
  0
ARC
  8
Engraving
 62
   255
 39
0.008
  6
CONTINUOUS
 10
1.02917
 20
4.37142
 30
 0
 40
0.02244
 50
91.60788
 51
-174.86924
  0
ARC
  8
Engraving
 62
   255
 39
0.008
  6
CONTINUOUS
 10
1.02969
 20
4.37024
 30
 0
 40
0.02366
 50
330.40873
 51
92.76714
  0
LINE
  8
Engraving
 62
   255
 39
0.008
  6
CONTINUOUS
 10
1.05028
 20
4.35854
 30
 0
 11
1.00681
 21
4.28520
  0
LINE
  8
Engraving
 62
   255
 39
0.008
  6
CONTINUOUS
 10
1.00681
 20
4.28520
 30
 0
 11
1.05299
 21
4.28520
  0
ARC
  8
Engraving
 62
   255
 39
0.008
  6
CONTINUOUS
 10
0.70209
 20
3.33543
 30
 0
 40
0.02445
 50
180.00000
 51
360.00000
  0
LINE
  8
Engraving
 62
   255
 39
0.008
  6
CONTINUOUS
 10
0.72654
 20
3.33543
 30
 0
 11
0.72654
 21
3.39520
  0
ARC
  8
Engraving
 62
   255
 39
0.008
  6
CONTINUOUS
 10
0.70209
 20
3.39520
 30
 0
 40
0.02445
 50
0.00000
 51
180.00000
  0
LINE
  8
Engraving
 62
   255
 39
0.008
  6
CONTINUOUS
 10
0.67764
 20
3.39520
 30
 0
 11
0.67764
 21
3.33543
  0
LINE
  8
Engraving
 62
   255
 39
0.008
  6
CONTINUOUS
 10
0.75732
 20
3.41965
 30
 0
 11
0.75732
 21
3.33543
  0
ARC
  8
Engraving
 62
   255
 39
0.008
  6
CONTINUOUS
 10
0.78177
 20
3.33543
 30
 0
 40
0.02445
 50
180.00000
 51
360.00000
  0
LINE
  8
Engraving
 62
   255
 39
0.008
  6
CONTINUOUS
 10
0.80622
 20
3.33543
 30
 0
 11
0.80622
 21
3.41965
  0
LINE
  8
Engraving
 62
   255
 39
0.008
  6
CONTINUOUS
 10
0.83701
 20
3.41965
 30
 0
 11
0.88591
 21
3.41965
  0
LINE
  8
Engraving
 62
   255
 39
0.008
  6
CONTINUOUS
 10
0.88591
 20
3.41965
 30
 0
 11
0.86146
 21
3.41965
  0
LINE
  8
Engraving
 62
   255
 39
0.008
  6
CONTINUOUS
 10
0.86146
 20
3.41965
 30
 0
 11
0.86146
 21
3.31098
  0
ARC
  8
Engraving
 62
   255
 39
0.008
  6
CONTINUOUS
 10
1.02768
 20
3.39634
 30
 0
 40
0.02228
 50
434.83371
 51
175.95042
  0
ARC
  8
Engraving
 62
   255
 39
0.008
  6
CONTINUOUS
 10
1.02705
 20
3.39465
 30
 0
 40
0.02406
 50
263.79452
 51
74.44078
  0
ARC
  8
Engraving
 62
   255
 39
0.008
  6
CONTINUOUS
 10
1.02776
 20
3.34126
 30
 0
 40
0.02969
 50
286.56101
 51
96.39896
  0
ARC
  8
Engraving
 62
   255
 39
0.008
  6
CONTINUOUS
 10
1.02878
 20
3.33791
 30
 0
 40
0.02618
 50
185.43625
 51
-73.49870
  0
ARC
  8
Engraving
 62
   255
 39
0.008
  6
CONTINUOUS
 10
0.71720
 20
5.28445
 30
 0
 40
0.02445
 50
180.00000
 51
360.00000
  0
LINE
  8
Engraving
 62
   255
 39
0.008
  6
CONTINUOUS
 10
0.74165
 20
5.28445
 30
 0
 11
0.74165
 21
5.34421
  0
ARC
  8
Engraving
 62
   255
 39
0.008
  6
CONTINUOUS
 10
0.71720
 20
5.34421
 30
 0
 40
0.02445
 50
0.00000
 51
180.00000
  0
LINE
  8
Engraving
 62
   255
 39
0.008
  6
CONTINUOUS
 10
0.69276
 20
5.34421
 30
 0
 11
0.69276
 21
5.28445
  0
LINE
  8
Engraving
 62
   255
 39
0.008
  6
CONTINUOUS
 10
0.77244
 20
5.36866
 30
 0
 11
0.77244
 21
5.28445
  0
ARC
  8
Engraving
 62
   255
 39
0.008
  6
CONTINUOUS
 10
0.79689
 20
5.28445
 30
 0
 40
0.02445
 50
180.00000
 51
360.00000
  0
LINE
  8
Engraving
 62
   255
 39
0.008
  6
CONTINUOUS
 10
0.82134
 20
5.28445
 30
 0
 11
0.82134
 21
5.36866
  0
LINE
  8
Engraving
 62
   255
 39
0.008
  6
CONTINUOUS
 10
0.85213
 20
5.36866
 30
 0
 11
0.90102
 21
5.36866
  0
LINE
  8
Engraving
 62
   255
 39
0.008
  6
CONTINUOUS
 10
0.90102
 20
5.36866
 30
 0
 11
0.87657
 21
5.36866
  0
LINE
  8
Engraving
 62
   255
 39
0.008
  6
CONTINUOUS
 10
0.87657
 20
5.36866
 30
 0
 11
0.87657
 21
5.26000
  0
LINE
  8
Engraving
 62
   255
 39
0.008
  6
CONTINUOUS
 10
1.01783
 20
5.34150
 30
 0
 11
1.04228
 21
5.36866
  0
LINE
  8
Engraving
 62
   255
 39
0.008
  6
CONTINUOUS
 10
1.04228
 20
5.36866
 30
 0
 11
1.04228
 21
5.26000
  0
LINE
  8
Engraving
 62
   255
 39
0.016
  6
CONTINUOUS
 10
0.80169
 20
7.83496
 30
 0
 11
0.90169
 21
7.83496
  0
LINE
  8
Engraving
 62
   255
 39
0.008
  6
CONTINUOUS
 10
0.89654
 20
7.87283
 30
 0
 11
0.92724
 21
7.84213
  0
LINE
  8
Engraving
 62
   255
 39
0.008
  6
CONTINUOUS
 10
0.92724
 20
7.84213
 30
 0
 11
0.92724
 21
7.82984
  0
LINE
  8
Engraving
 62
   255
 39
0.008
  6
CONTINUOUS
 10
0.92724
 20
7.82984
 30
 0
 11
0.89654
 21
7.79913
  0
LINE
  8
Engraving
 62
   255
 39
0.008
  6
CONTINUOUS
 10
0.89654
 20
7.79913
 30
 0
 11
0.89244
 21
7.78480
  0
LINE
  8
Engraving
 62
   255
 39
0.008
  6
CONTINUOUS
 10
0.89244
 20
7.78480
 30
 0
 11
0.93339
 21
7.82575
  0
LINE
  8
Engraving
 62
   255
 39
0.008
  6
CONTINUOUS
 10
0.93339
 20
7.82575
 30
 0
 11
0.93339
 21
7.84622
  0
LINE
  8
Engraving
 62
   255
 39
0.008
  6
CONTINUOUS
 10
0.93339
 20
7.84622
 30
 0
 11
0.89244
 21
7.88717
  0
LINE
  8
Engraving
 62
   255
 39
0.008
  6
CONTINUOUS
 10
0.89244
 20
7.88717
 30
 0
 11
0.89244
 21
7.86669
  0
LINE
  8
Engraving
 62
   255
 39
0.008
  6
CONTINUOUS
 10
0.89244
 20
7.86669
 30
 0
 11
0.92315
 21
7.83598
  0
LINE
  8
Engraving
 62
   255
 39
0.008
  6
CONTINUOUS
 10
0.92315
 20
7.83598
 30
 0
 11
0.89244
 21
7.80528
  0
LINE
  8
Engraving
 62
   255
 39
0.008
  6
CONTINUOUS
 10
0.89244
 20
7.80528
 30
 0
 11
0.89244
 21
7.78480
  0
CIRCLE
  8
Contour
 62
   7
 39
0.004
  6
CONTINUOUS
 10
1.49248
 20
0.24248
 30
 0
 40
0.10827
  0
CIRCLE
  8
Contour
 62
   7
 39
0.004
  6
CONTINUOUS
 10
1.49248
 20
8.49252
 30
 0
 40
0.10827
  0
CIRCLE
  8
Contour
 62
   7
 39
0.004
  6
CONTINUOUS
 10
0.24248
 20
8.49252
 30
 0
 40
0.10827
  0
CIRCLE
  8
Contour
 62
   7
 39
0.004
  6
CONTINUOUS
 10
0.24248
 20
0.24248
 30
 0
 40
0.10827
  0
CIRCLE
  8
Contour
 62
   7
 39
0.004
  6
CONTINUOUS
 10
0.45000
 20
7.83500
 30
 0
 40
0.19000
  0
CIRCLE
  8
Contour
 62
   7
 39
0.004
  6
CONTINUOUS
 10
0.86748
 20
6.77795
 30
 0
 40
0.19000
  0
CIRCLE
  8
Contour
 62
   7
 39
0.004
  6
CONTINUOUS
 10
0.45000
 20
4.87000
 30
 0
 40
0.19000
  0
CIRCLE
  8
Contour
 62
   7
 39
0.004
  6
CONTINUOUS
 10
0.45000
 20
2.89000
 30
 0
 40
0.19000
  0
CIRCLE
  8
Contour
 62
   7
 39
0.004
  6
CONTINUOUS
 10
1.30000
 20
2.89000
 30
 0
 40
0.19000
  0
CIRCLE
  8
Contour
 62
   7
 39
0.004
  6
CONTINUOUS
 10
1.30000
 20
3.88000
 30
 0
 40
0.19000
  0
CIRCLE
  8
Contour
 62
   7
 39
0.004
  6
CONTINUOUS
 10
0.45000
 20
3.88000
 30
 0
 40
0.19000
  0
CIRCLE
  8
Contour
 62
   7
 39
0.004
  6
CONTINUOUS
 10
1.30000
 20
4.87000
 30
 0
 40
0.19000
  0
CIRCLE
  8
Contour
 62
   7
 39
0.004
  6
CONTINUOUS
 10
1.30000
 20
7.83500
 30
 0
 40
0.19000
  0
LINE
  8
Reference_points
 62
   1
 39
0.004
  6
CONTINUOUS
 10
-0.03937
 20
0.00000
 30
 0
 11
0.03937
 21
0.00000
  0
LINE
  8
Reference_points
 62
   1
 39
0.004
  6
CONTINUOUS
 10
0.00000
 20
-0.03937
 30
 0
 11
0.00000
 21
0.03937
  0
LINE
  8
Reference_points
 62
   1
 39
0.004
  6
CONTINUOUS
 10
0.82815
 20
0.65000
 30
 0
 11
0.90689
 21
0.65000
  0
LINE
  8
Reference_points
 62
   1
 39
0.004
  6
CONTINUOUS
 10
0.86752
 20
0.61063
 30
 0
 11
0.86752
 21
0.68937
  0
LINE
  8
Reference_points
 62
   1
 39
0.004
  6
CONTINUOUS
 10
1.45311
 20
0.24248
 30
 0
 11
1.53185
 21
0.24248
  0
LINE
  8
Reference_points
 62
   1
 39
0.004
  6
CONTINUOUS
 10
1.49248
 20
0.20311
 30
 0
 11
1.49248
 21
0.28185
  0
LINE
  8
Reference_points
 62
   1
 39
0.004
  6
CONTINUOUS
 10
1.45311
 20
8.49252
 30
 0
 11
1.53185
 21
8.49252
  0
LINE
  8
Reference_points
 62
   1
 39
0.004
  6
CONTINUOUS
 10
1.49248
 20
8.45315
 30
 0
 11
1.49248
 21
8.53189
  0
LINE
  8
Reference_points
 62
   1
 39
0.004
  6
CONTINUOUS
 10
0.20311
 20
8.49252
 30
 0
 11
0.28185
 21
8.49252
  0
LINE
  8
Reference_points
 62
   1
 39
0.004
  6
CONTINUOUS
 10
0.24248
 20
8.45315
 30
 0
 11
0.24248
 21
8.53189
  0
LINE
  8
Reference_points
 62
   1
 39
0.004
  6
CONTINUOUS
 10
0.20311
 20
0.24248
 30
 0
 11
0.28185
 21
0.24248
  0
LINE
  8
Reference_points
 62
   1
 39
0.004
  6
CONTINUOUS
 10
0.24248
 20
0.20311
 30
 0
 11
0.24248
 21
0.28185
  0
LINE
  8
Reference_points
 62
   1
 39
0.004
  6
CONTINUOUS
 10
0.41063
 20
7.83500
 30
 0
 11
0.48937
 21
7.83500
  0
LINE
  8
Reference_points
 62
   1
 39
0.004
  6
CONTINUOUS
 10
0.45000
 20
7.79563
 30
 0
 11
0.45000
 21
7.87437
  0
LINE
  8
Reference_points
 62
   1
 39
0.004
  6
CONTINUOUS
 10
0.82815
 20
7.33520
 30
 0
 11
0.90689
 21
7.33520
  0
LINE
  8
Reference_points
 62
   1
 39
0.004
  6
CONTINUOUS
 10
0.86752
 20
7.29583
 30
 0
 11
0.86752
 21
7.37457
  0
LINE
  8
Reference_points
 62
   1
 39
0.004
  6
CONTINUOUS
 10
0.82811
 20
6.77795
 30
 0
 11
0.90685
 21
6.77795
  0
LINE
  8
Reference_points
 62
   1
 39
0.004
  6
CONTINUOUS
 10
0.86748
 20
6.73858
 30
 0
 11
0.86748
 21
6.81732
  0
LINE
  8
Reference_points
 62
   1
 39
0.004
  6
CONTINUOUS
 10
0.82815
 20
8.28480
 30
 0
 11
0.90689
 21
8.28480
  0
LINE
  8
Reference_points
 62
   1
 39
0.004
  6
CONTINUOUS
 10
0.86752
 20
8.24543
 30
 0
 11
0.86752
 21
8.32417
  0
LINE
  8
Reference_points
 62
   1
 39
0.004
  6
CONTINUOUS
 10
0.41063
 20
4.87000
 30
 0
 11
0.48937
 21
4.87000
  0
LINE
  8
Reference_points
 62
   1
 39
0.004
  6
CONTINUOUS
 10
0.45000
 20
4.83063
 30
 0
 11
0.45000
 21
4.90937
  0
LINE
  8
Reference_points
 62
   1
 39
0.004
  6
CONTINUOUS
 10
0.41063
 20
2.89000
 30
 0
 11
0.48937
 21
2.89000
  0
LINE
  8
Reference_points
 62
   1
 39
0.004
  6
CONTINUOUS
 10
0.45000
 20
2.85063
 30
 0
 11
0.45000
 21
2.92937
  0
LINE
  8
Reference_points
 62
   1
 39
0.004
  6
CONTINUOUS
 10
1.26063
 20
2.89000
 30
 0
 11
1.33937
 21
2.89000
  0
LINE
  8
Reference_points
 62
   1
 39
0.004
  6
CONTINUOUS
 10
1.30000
 20
2.85063
 30
 0
 11
1.30000
 21
2.92937
  0
LINE
  8
Reference_points
 62
   1
 39
0.004
  6
CONTINUOUS
 10
0.82815
 20
4.34020
 30
 0
 11
0.90689
 21
4.34020
  0
LINE
  8
Reference_points
 62
   1
 39
0.004
  6
CONTINUOUS
 10
0.86752
 20
4.30083
 30
 0
 11
0.86752
 21
4.37957
  0
LINE
  8
Reference_points
 62
   1
 39
0.004
  6
CONTINUOUS
 10
0.82815
 20
3.36598
 30
 0
 11
0.90689
 21
3.36598
  0
LINE
  8
Reference_points
 62
   1
 39
0.004
  6
CONTINUOUS
 10
0.86752
 20
3.32661
 30
 0
 11
0.86752
 21
3.40535
  0
LINE
  8
Reference_points
 62
   1
 39
0.004
  6
CONTINUOUS
 10
1.26063
 20
3.88000
 30
 0
 11
1.33937
 21
3.88000
  0
LINE
  8
Reference_points
 62
   1
 39
0.004
  6
CONTINUOUS
 10
1.30000
 20
3.84063
 30
 0
 11
1.30000
 21
3.91937
  0
LINE
  8
Reference_points
 62
   1
 39
0.004
  6
CONTINUOUS
 10
0.41063
 20
3.88000
 30
 0
 11
0.48937
 21
3.88000
  0
LINE
  8
Reference_points
 62
   1
 39
0.004
  6
CONTINUOUS
 10
0.45000
 20
3.84063
 30
 0
 11
0.45000
 21
3.91937
  0
LINE
  8
Reference_points
 62
   1
 39
0.004
  6
CONTINUOUS
 10
0.82815
 20
5.31500
 30
 0
 11
0.90689
 21
5.31500
  0
LINE
  8
Reference_points
 62
   1
 39
0.004
  6
CONTINUOUS
 10
0.86752
 20
5.27563
 30
 0
 11
0.86752
 21
5.35437
  0
LINE
  8
Reference_points
 62
   1
 39
0.004
  6
CONTINUOUS
 10
1.26063
 20
4.87000
 30
 0
 11
1.33937
 21
4.87000
  0
LINE
  8
Reference_points
 62
   1
 39
0.004
  6
CONTINUOUS
 10
1.30000
 20
4.83063
 30
 0
 11
1.30000
 21
4.90937
  0
LINE
  8
Reference_points
 62
   1
 39
0.004
  6
CONTINUOUS
 10
1.26063
 20
7.83500
 30
 0
 11
1.33937
 21
7.83500
  0
LINE
  8
Reference_points
 62
   1
 39
0.004
  6
CONTINUOUS
 10
1.30000
 20
7.79563
 30
 0
 11
1.30000
 21
7.87437
  0
LINE
  8
Reference_points
 62
   1
 39
0.004
  6
CONTINUOUS
 10
0.81232
 20
7.83496
 30
 0
 11
0.89106
 21
7.83496
  0
LINE
  8
Reference_points
 62
   1
 39
0.004
  6
CONTINUOUS
 10
0.85169
 20
7.79559
 30
 0
 11
0.85169
 21
7.87433
  0
LINE
  8
Reference_points
 62
   1
 39
0.004
  6
CONTINUOUS
 10
0.87354
 20
7.83614
 30
 0
 11
0.95228
 21
7.83614
  0
LINE
  8
Reference_points
 62
   1
 39
0.004
  6
CONTINUOUS
 10
0.91291
 20
7.79677
 30
 0
 11
0.91291
 21
7.87551
  0
ENDSEC
  0
EOF
