  0
SECTION
  2
HEADER
  9
$MEASUREMENT
  70
  0
  9
$INSUNITS
  70
  1
  0
ENDSEC
  0
SECTION
  2
TABLES
  0
TABLE
  2
LTYPE
 70
     1
  0
LTYPE
  2
CONTINUOUS
 70
    64
  3
Ausgezogene Linie
 72
    65
 73
     0
 40
0.0
  0
ENDTAB
  0
TABLE
  2
LAYER
 70
     3
  0
LAYER
  2
Contour
 70
    64
 62
     7
  6
CONTINUOUS
  0
LAYER
  2
Engraving
 70
    64
 62
     7
  6
CONTINUOUS
  0
LAYER
  2
Reference_points
 70
    64
 62
     1
  6
CONTINUOUS
  0
ENDTAB
  0
TABLE
  2
STYLE
 70
     1
  0
STYLE
  2
TXT
 70
    64
 40
0.0
 41
1.0
 50
0.0
 71
     0
 42
3.500000
  3
TXT
  0
ENDTAB
  0
ENDSEC
  0
SECTION
  2
BLOCKS
  0
ENDSEC
  0
SECTION
  2
ENTITIES
  0
LINE
  8
Contour
 62
   7
 39
0.004
  6
CONTINUOUS
 10
3.48500
 20
8.73500
 30
 0
 11
0.00000
 21
8.73500
  0
LINE
  8
Contour
 62
   7
 39
0.004
  6
CONTINUOUS
 10
0.00000
 20
8.73500
 30
 0
 11
0.00000
 21
8.73500
  0
LINE
  8
Contour
 62
   7
 39
0.004
  6
CONTINUOUS
 10
0.00000
 20
8.73500
 30
 0
 11
0.00000
 21
0.00000
  0
LINE
  8
Contour
 62
   7
 39
0.004
  6
CONTINUOUS
 10
0.00000
 20
0.00000
 30
 0
 11
0.00000
 21
0.00000
  0
LINE
  8
Contour
 62
   7
 39
0.004
  6
CONTINUOUS
 10
0.00000
 20
0.00000
 30
 0
 11
3.48500
 21
0.00000
  0
LINE
  8
Contour
 62
   7
 39
0.004
  6
CONTINUOUS
 10
3.48500
 20
0.00000
 30
 0
 11
3.48500
 21
0.00000
  0
LINE
  8
Contour
 62
   7
 39
0.004
  6
CONTINUOUS
 10
3.48500
 20
0.00000
 30
 0
 11
3.48500
 21
8.73500
  0
LINE
  8
Contour
 62
   7
 39
0.004
  6
CONTINUOUS
 10
3.48500
 20
8.73500
 30
 0
 11
3.48500
 21
8.73500
  0
LINE
  8
Engraving
 62
   255
 39
0.008
  6
CONTINUOUS
 10
1.50236
 20
0.29252
 30
 0
 11
1.50248
 21
0.28898
  0
LINE
  8
Engraving
 62
   255
 39
0.008
  6
CONTINUOUS
 10
1.50248
 20
0.28898
 30
 0
 11
1.50299
 21
0.28547
  0
LINE
  8
Engraving
 62
   255
 39
0.008
  6
CONTINUOUS
 10
1.50299
 20
0.28547
 30
 0
 11
1.50386
 21
0.28209
  0
LINE
  8
Engraving
 62
   255
 39
0.008
  6
CONTINUOUS
 10
1.50386
 20
0.28209
 30
 0
 11
1.50512
 21
0.27890
  0
LINE
  8
Engraving
 62
   255
 39
0.008
  6
CONTINUOUS
 10
1.50512
 20
0.27890
 30
 0
 11
1.50669
 21
0.27594
  0
LINE
  8
Engraving
 62
   255
 39
0.008
  6
CONTINUOUS
 10
1.50669
 20
0.27594
 30
 0
 11
1.50858
 21
0.27327
  0
LINE
  8
Engraving
 62
   255
 39
0.008
  6
CONTINUOUS
 10
1.50858
 20
0.27327
 30
 0
 11
1.51079
 21
0.27098
  0
LINE
  8
Engraving
 62
   255
 39
0.008
  6
CONTINUOUS
 10
1.51079
 20
0.27098
 30
 0
 11
1.51315
 21
0.26906
  0
LINE
  8
Engraving
 62
   255
 39
0.008
  6
CONTINUOUS
 10
1.51315
 20
0.26906
 30
 0
 11
1.51575
 21
0.26756
  0
LINE
  8
Engraving
 62
   255
 39
0.008
  6
CONTINUOUS
 10
1.51575
 20
0.26756
 30
 0
 11
1.51846
 21
0.26650
  0
LINE
  8
Engraving
 62
   255
 39
0.008
  6
CONTINUOUS
 10
1.51846
 20
0.26650
 30
 0
 11
1.52126
 21
0.26594
  0
LINE
  8
Engraving
 62
   255
 39
0.008
  6
CONTINUOUS
 10
1.52126
 20
0.26594
 30
 0
 11
1.52126
 21
0.26594
  0
LINE
  8
Engraving
 62
   255
 39
0.008
  6
CONTINUOUS
 10
1.52126
 20
0.26594
 30
 0
 11
1.52390
 21
0.26630
  0
LINE
  8
Engraving
 62
   255
 39
0.008
  6
CONTINUOUS
 10
1.52390
 20
0.26630
 30
 0
 11
1.52654
 21
0.26709
  0
LINE
  8
Engraving
 62
   255
 39
0.008
  6
CONTINUOUS
 10
1.52654
 20
0.26709
 30
 0
 11
1.52902
 21
0.26831
  0
LINE
  8
Engraving
 62
   255
 39
0.008
  6
CONTINUOUS
 10
1.52902
 20
0.26831
 30
 0
 11
1.53134
 21
0.26996
  0
LINE
  8
Engraving
 62
   255
 39
0.008
  6
CONTINUOUS
 10
1.53134
 20
0.26996
 30
 0
 11
1.53346
 21
0.27197
  0
LINE
  8
Engraving
 62
   255
 39
0.008
  6
CONTINUOUS
 10
1.53346
 20
0.27197
 30
 0
 11
1.53535
 21
0.27433
  0
LINE
  8
Engraving
 62
   255
 39
0.008
  6
CONTINUOUS
 10
1.53535
 20
0.27433
 30
 0
 11
1.53693
 21
0.27697
  0
LINE
  8
Engraving
 62
   255
 39
0.008
  6
CONTINUOUS
 10
1.53693
 20
0.27697
 30
 0
 11
1.53827
 21
0.27988
  0
LINE
  8
Engraving
 62
   255
 39
0.008
  6
CONTINUOUS
 10
1.53827
 20
0.27988
 30
 0
 11
1.53925
 21
0.28299
  0
LINE
  8
Engraving
 62
   255
 39
0.008
  6
CONTINUOUS
 10
1.53925
 20
0.28299
 30
 0
 11
1.53988
 21
0.28626
  0
LINE
  8
Engraving
 62
   255
 39
0.008
  6
CONTINUOUS
 10
1.53988
 20
0.28626
 30
 0
 11
1.54016
 21
0.28957
  0
LINE
  8
Engraving
 62
   255
 39
0.008
  6
CONTINUOUS
 10
1.54016
 20
0.28957
 30
 0
 11
1.54016
 21
0.28957
  0
LINE
  8
Engraving
 62
   255
 39
0.008
  6
CONTINUOUS
 10
1.54016
 20
0.28957
 30
 0
 11
1.54016
 21
0.36043
  0
LINE
  8
Engraving
 62
   255
 39
0.008
  6
CONTINUOUS
 10
1.54016
 20
0.36043
 30
 0
 11
1.53992
 21
0.36394
  0
LINE
  8
Engraving
 62
   255
 39
0.008
  6
CONTINUOUS
 10
1.53992
 20
0.36394
 30
 0
 11
1.53929
 21
0.36740
  0
LINE
  8
Engraving
 62
   255
 39
0.008
  6
CONTINUOUS
 10
1.53929
 20
0.36740
 30
 0
 11
1.53831
 21
0.37067
  0
LINE
  8
Engraving
 62
   255
 39
0.008
  6
CONTINUOUS
 10
1.53831
 20
0.37067
 30
 0
 11
1.53689
 21
0.37374
  0
LINE
  8
Engraving
 62
   255
 39
0.008
  6
CONTINUOUS
 10
1.53689
 20
0.37374
 30
 0
 11
1.53512
 21
0.37650
  0
LINE
  8
Engraving
 62
   255
 39
0.008
  6
CONTINUOUS
 10
1.53512
 20
0.37650
 30
 0
 11
1.53303
 21
0.37890
  0
LINE
  8
Engraving
 62
   255
 39
0.008
  6
CONTINUOUS
 10
1.53303
 20
0.37890
 30
 0
 11
1.53071
 21
0.38091
  0
LINE
  8
Engraving
 62
   255
 39
0.008
  6
CONTINUOUS
 10
1.53071
 20
0.38091
 30
 0
 11
1.52815
 21
0.38244
  0
LINE
  8
Engraving
 62
   255
 39
0.008
  6
CONTINUOUS
 10
1.52815
 20
0.38244
 30
 0
 11
1.52547
 21
0.38346
  0
LINE
  8
Engraving
 62
   255
 39
0.008
  6
CONTINUOUS
 10
1.52547
 20
0.38346
 30
 0
 11
1.52268
 21
0.38398
  0
LINE
  8
Engraving
 62
   255
 39
0.008
  6
CONTINUOUS
 10
1.52268
 20
0.38398
 30
 0
 11
1.51984
 21
0.38398
  0
LINE
  8
Engraving
 62
   255
 39
0.008
  6
CONTINUOUS
 10
1.51984
 20
0.38398
 30
 0
 11
1.51705
 21
0.38346
  0
LINE
  8
Engraving
 62
   255
 39
0.008
  6
CONTINUOUS
 10
1.51705
 20
0.38346
 30
 0
 11
1.51437
 21
0.38244
  0
LINE
  8
Engraving
 62
   255
 39
0.008
  6
CONTINUOUS
 10
1.51437
 20
0.38244
 30
 0
 11
1.51181
 21
0.38091
  0
LINE
  8
Engraving
 62
   255
 39
0.008
  6
CONTINUOUS
 10
1.51181
 20
0.38091
 30
 0
 11
1.50949
 21
0.37890
  0
LINE
  8
Engraving
 62
   255
 39
0.008
  6
CONTINUOUS
 10
1.50949
 20
0.37890
 30
 0
 11
1.50740
 21
0.37650
  0
LINE
  8
Engraving
 62
   255
 39
0.008
  6
CONTINUOUS
 10
1.50740
 20
0.37650
 30
 0
 11
1.50563
 21
0.37374
  0
LINE
  8
Engraving
 62
   255
 39
0.008
  6
CONTINUOUS
 10
1.50563
 20
0.37374
 30
 0
 11
1.50421
 21
0.37067
  0
LINE
  8
Engraving
 62
   255
 39
0.008
  6
CONTINUOUS
 10
1.50421
 20
0.37067
 30
 0
 11
1.50323
 21
0.36740
  0
LINE
  8
Engraving
 62
   255
 39
0.008
  6
CONTINUOUS
 10
1.50323
 20
0.36740
 30
 0
 11
1.50260
 21
0.36394
  0
LINE
  8
Engraving
 62
   255
 39
0.008
  6
CONTINUOUS
 10
1.50260
 20
0.36394
 30
 0
 11
1.50236
 21
0.36043
  0
LINE
  8
Engraving
 62
   255
 39
0.008
  6
CONTINUOUS
 10
1.50236
 20
0.36043
 30
 0
 11
1.50236
 21
0.36043
  0
LINE
  8
Engraving
 62
   255
 39
0.008
  6
CONTINUOUS
 10
1.50236
 20
0.36043
 30
 0
 11
1.50236
 21
0.34272
  0
LINE
  8
Engraving
 62
   255
 39
0.008
  6
CONTINUOUS
 10
1.50236
 20
0.34272
 30
 0
 11
1.50291
 21
0.33917
  0
LINE
  8
Engraving
 62
   255
 39
0.008
  6
CONTINUOUS
 10
1.50291
 20
0.33917
 30
 0
 11
1.50386
 21
0.33575
  0
LINE
  8
Engraving
 62
   255
 39
0.008
  6
CONTINUOUS
 10
1.50386
 20
0.33575
 30
 0
 11
1.50520
 21
0.33252
  0
LINE
  8
Engraving
 62
   255
 39
0.008
  6
CONTINUOUS
 10
1.50520
 20
0.33252
 30
 0
 11
1.50693
 21
0.32961
  0
LINE
  8
Engraving
 62
   255
 39
0.008
  6
CONTINUOUS
 10
1.50693
 20
0.32961
 30
 0
 11
1.50894
 21
0.32701
  0
LINE
  8
Engraving
 62
   255
 39
0.008
  6
CONTINUOUS
 10
1.50894
 20
0.32701
 30
 0
 11
1.51126
 21
0.32484
  0
LINE
  8
Engraving
 62
   255
 39
0.008
  6
CONTINUOUS
 10
1.51126
 20
0.32484
 30
 0
 11
1.51382
 21
0.32311
  0
LINE
  8
Engraving
 62
   255
 39
0.008
  6
CONTINUOUS
 10
1.51382
 20
0.32311
 30
 0
 11
1.51657
 21
0.32189
  0
LINE
  8
Engraving
 62
   255
 39
0.008
  6
CONTINUOUS
 10
1.51657
 20
0.32189
 30
 0
 11
1.51941
 21
0.32118
  0
LINE
  8
Engraving
 62
   255
 39
0.008
  6
CONTINUOUS
 10
1.51941
 20
0.32118
 30
 0
 11
1.52228
 21
0.32098
  0
LINE
  8
Engraving
 62
   255
 39
0.008
  6
CONTINUOUS
 10
1.52228
 20
0.32098
 30
 0
 11
1.52516
 21
0.32134
  0
LINE
  8
Engraving
 62
   255
 39
0.008
  6
CONTINUOUS
 10
1.52516
 20
0.32134
 30
 0
 11
1.52799
 21
0.32224
  0
LINE
  8
Engraving
 62
   255
 39
0.008
  6
CONTINUOUS
 10
1.52799
 20
0.32224
 30
 0
 11
1.53067
 21
0.32362
  0
LINE
  8
Engraving
 62
   255
 39
0.008
  6
CONTINUOUS
 10
1.53067
 20
0.32362
 30
 0
 11
1.53315
 21
0.32551
  0
LINE
  8
Engraving
 62
   255
 39
0.008
  6
CONTINUOUS
 10
1.53315
 20
0.32551
 30
 0
 11
1.53539
 21
0.32780
  0
LINE
  8
Engraving
 62
   255
 39
0.008
  6
CONTINUOUS
 10
1.53539
 20
0.32780
 30
 0
 11
1.53732
 21
0.33051
  0
LINE
  8
Engraving
 62
   255
 39
0.008
  6
CONTINUOUS
 10
1.53732
 20
0.33051
 30
 0
 11
1.53894
 21
0.33354
  0
LINE
  8
Engraving
 62
   255
 39
0.008
  6
CONTINUOUS
 10
1.53894
 20
0.33354
 30
 0
 11
1.54016
 21
0.33681
  0
LINE
  8
Engraving
 62
   255
 39
0.008
  6
CONTINUOUS
 10
1.54016
 20
0.33681
 30
 0
 11
1.54016
 21
0.33681
  0
LINE
  8
Engraving
 62
   255
 39
0.008
  6
CONTINUOUS
 10
1.56693
 20
0.29252
 30
 0
 11
1.56717
 21
0.28854
  0
LINE
  8
Engraving
 62
   255
 39
0.008
  6
CONTINUOUS
 10
1.56717
 20
0.28854
 30
 0
 11
1.56787
 21
0.28469
  0
LINE
  8
Engraving
 62
   255
 39
0.008
  6
CONTINUOUS
 10
1.56787
 20
0.28469
 30
 0
 11
1.56906
 21
0.28098
  0
LINE
  8
Engraving
 62
   255
 39
0.008
  6
CONTINUOUS
 10
1.56906
 20
0.28098
 30
 0
 11
1.57063
 21
0.27756
  0
LINE
  8
Engraving
 62
   255
 39
0.008
  6
CONTINUOUS
 10
1.57063
 20
0.27756
 30
 0
 11
1.57260
 21
0.27445
  0
LINE
  8
Engraving
 62
   255
 39
0.008
  6
CONTINUOUS
 10
1.57260
 20
0.27445
 30
 0
 11
1.57492
 21
0.27173
  0
LINE
  8
Engraving
 62
   255
 39
0.008
  6
CONTINUOUS
 10
1.57492
 20
0.27173
 30
 0
 11
1.57756
 21
0.26949
  0
LINE
  8
Engraving
 62
   255
 39
0.008
  6
CONTINUOUS
 10
1.57756
 20
0.26949
 30
 0
 11
1.58039
 21
0.26780
  0
LINE
  8
Engraving
 62
   255
 39
0.008
  6
CONTINUOUS
 10
1.58039
 20
0.26780
 30
 0
 11
1.58346
 21
0.26661
  0
LINE
  8
Engraving
 62
   255
 39
0.008
  6
CONTINUOUS
 10
1.58346
 20
0.26661
 30
 0
 11
1.58661
 21
0.26602
  0
LINE
  8
Engraving
 62
   255
 39
0.008
  6
CONTINUOUS
 10
1.58661
 20
0.26602
 30
 0
 11
1.58976
 21
0.26602
  0
LINE
  8
Engraving
 62
   255
 39
0.008
  6
CONTINUOUS
 10
1.58976
 20
0.26602
 30
 0
 11
1.59291
 21
0.26661
  0
LINE
  8
Engraving
 62
   255
 39
0.008
  6
CONTINUOUS
 10
1.59291
 20
0.26661
 30
 0
 11
1.59598
 21
0.26780
  0
LINE
  8
Engraving
 62
   255
 39
0.008
  6
CONTINUOUS
 10
1.59598
 20
0.26780
 30
 0
 11
1.59882
 21
0.26949
  0
LINE
  8
Engraving
 62
   255
 39
0.008
  6
CONTINUOUS
 10
1.59882
 20
0.26949
 30
 0
 11
1.60146
 21
0.27173
  0
LINE
  8
Engraving
 62
   255
 39
0.008
  6
CONTINUOUS
 10
1.60146
 20
0.27173
 30
 0
 11
1.60378
 21
0.27445
  0
LINE
  8
Engraving
 62
   255
 39
0.008
  6
CONTINUOUS
 10
1.60378
 20
0.27445
 30
 0
 11
1.60575
 21
0.27756
  0
LINE
  8
Engraving
 62
   255
 39
0.008
  6
CONTINUOUS
 10
1.60575
 20
0.27756
 30
 0
 11
1.60732
 21
0.28098
  0
LINE
  8
Engraving
 62
   255
 39
0.008
  6
CONTINUOUS
 10
1.60732
 20
0.28098
 30
 0
 11
1.60850
 21
0.28469
  0
LINE
  8
Engraving
 62
   255
 39
0.008
  6
CONTINUOUS
 10
1.60850
 20
0.28469
 30
 0
 11
1.60921
 21
0.28854
  0
LINE
  8
Engraving
 62
   255
 39
0.008
  6
CONTINUOUS
 10
1.60921
 20
0.28854
 30
 0
 11
1.60945
 21
0.29252
  0
LINE
  8
Engraving
 62
   255
 39
0.008
  6
CONTINUOUS
 10
1.60945
 20
0.29252
 30
 0
 11
1.60945
 21
0.29252
  0
LINE
  8
Engraving
 62
   255
 39
0.008
  6
CONTINUOUS
 10
1.60945
 20
0.29252
 30
 0
 11
1.60945
 21
0.35748
  0
LINE
  8
Engraving
 62
   255
 39
0.008
  6
CONTINUOUS
 10
1.60945
 20
0.35748
 30
 0
 11
1.60921
 21
0.36146
  0
LINE
  8
Engraving
 62
   255
 39
0.008
  6
CONTINUOUS
 10
1.60921
 20
0.36146
 30
 0
 11
1.60850
 21
0.36531
  0
LINE
  8
Engraving
 62
   255
 39
0.008
  6
CONTINUOUS
 10
1.60850
 20
0.36531
 30
 0
 11
1.60732
 21
0.36902
  0
LINE
  8
Engraving
 62
   255
 39
0.008
  6
CONTINUOUS
 10
1.60732
 20
0.36902
 30
 0
 11
1.60575
 21
0.37244
  0
LINE
  8
Engraving
 62
   255
 39
0.008
  6
CONTINUOUS
 10
1.60575
 20
0.37244
 30
 0
 11
1.60378
 21
0.37555
  0
LINE
  8
Engraving
 62
   255
 39
0.008
  6
CONTINUOUS
 10
1.60378
 20
0.37555
 30
 0
 11
1.60146
 21
0.37827
  0
LINE
  8
Engraving
 62
   255
 39
0.008
  6
CONTINUOUS
 10
1.60146
 20
0.37827
 30
 0
 11
1.59882
 21
0.38051
  0
LINE
  8
Engraving
 62
   255
 39
0.008
  6
CONTINUOUS
 10
1.59882
 20
0.38051
 30
 0
 11
1.59598
 21
0.38220
  0
LINE
  8
Engraving
 62
   255
 39
0.008
  6
CONTINUOUS
 10
1.59598
 20
0.38220
 30
 0
 11
1.59291
 21
0.38339
  0
LINE
  8
Engraving
 62
   255
 39
0.008
  6
CONTINUOUS
 10
1.59291
 20
0.38339
 30
 0
 11
1.58976
 21
0.38398
  0
LINE
  8
Engraving
 62
   255
 39
0.008
  6
CONTINUOUS
 10
1.58976
 20
0.38398
 30
 0
 11
1.58661
 21
0.38398
  0
LINE
  8
Engraving
 62
   255
 39
0.008
  6
CONTINUOUS
 10
1.58661
 20
0.38398
 30
 0
 11
1.58346
 21
0.38339
  0
LINE
  8
Engraving
 62
   255
 39
0.008
  6
CONTINUOUS
 10
1.58346
 20
0.38339
 30
 0
 11
1.58039
 21
0.38220
  0
LINE
  8
Engraving
 62
   255
 39
0.008
  6
CONTINUOUS
 10
1.58039
 20
0.38220
 30
 0
 11
1.57756
 21
0.38051
  0
LINE
  8
Engraving
 62
   255
 39
0.008
  6
CONTINUOUS
 10
1.57756
 20
0.38051
 30
 0
 11
1.57492
 21
0.37827
  0
LINE
  8
Engraving
 62
   255
 39
0.008
  6
CONTINUOUS
 10
1.57492
 20
0.37827
 30
 0
 11
1.57260
 21
0.37555
  0
LINE
  8
Engraving
 62
   255
 39
0.008
  6
CONTINUOUS
 10
1.57260
 20
0.37555
 30
 0
 11
1.57063
 21
0.37244
  0
LINE
  8
Engraving
 62
   255
 39
0.008
  6
CONTINUOUS
 10
1.57063
 20
0.37244
 30
 0
 11
1.56906
 21
0.36902
  0
LINE
  8
Engraving
 62
   255
 39
0.008
  6
CONTINUOUS
 10
1.56906
 20
0.36902
 30
 0
 11
1.56787
 21
0.36531
  0
LINE
  8
Engraving
 62
   255
 39
0.008
  6
CONTINUOUS
 10
1.56787
 20
0.36531
 30
 0
 11
1.56717
 21
0.36146
  0
LINE
  8
Engraving
 62
   255
 39
0.008
  6
CONTINUOUS
 10
1.56717
 20
0.36146
 30
 0
 11
1.56693
 21
0.35748
  0
LINE
  8
Engraving
 62
   255
 39
0.008
  6
CONTINUOUS
 10
1.56693
 20
0.35748
 30
 0
 11
1.56693
 21
0.35748
  0
LINE
  8
Engraving
 62
   255
 39
0.008
  6
CONTINUOUS
 10
1.56693
 20
0.35748
 30
 0
 11
1.56693
 21
0.29252
  0
LINE
  8
Engraving
 62
   255
 39
0.008
  6
CONTINUOUS
 10
1.63622
 20
0.29252
 30
 0
 11
1.63634
 21
0.28898
  0
LINE
  8
Engraving
 62
   255
 39
0.008
  6
CONTINUOUS
 10
1.63634
 20
0.28898
 30
 0
 11
1.63685
 21
0.28547
  0
LINE
  8
Engraving
 62
   255
 39
0.008
  6
CONTINUOUS
 10
1.63685
 20
0.28547
 30
 0
 11
1.63772
 21
0.28209
  0
LINE
  8
Engraving
 62
   255
 39
0.008
  6
CONTINUOUS
 10
1.63772
 20
0.28209
 30
 0
 11
1.63898
 21
0.27890
  0
LINE
  8
Engraving
 62
   255
 39
0.008
  6
CONTINUOUS
 10
1.63898
 20
0.27890
 30
 0
 11
1.64055
 21
0.27594
  0
LINE
  8
Engraving
 62
   255
 39
0.008
  6
CONTINUOUS
 10
1.64055
 20
0.27594
 30
 0
 11
1.64244
 21
0.27327
  0
LINE
  8
Engraving
 62
   255
 39
0.008
  6
CONTINUOUS
 10
1.64244
 20
0.27327
 30
 0
 11
1.64465
 21
0.27098
  0
LINE
  8
Engraving
 62
   255
 39
0.008
  6
CONTINUOUS
 10
1.64465
 20
0.27098
 30
 0
 11
1.64701
 21
0.26906
  0
LINE
  8
Engraving
 62
   255
 39
0.008
  6
CONTINUOUS
 10
1.64701
 20
0.26906
 30
 0
 11
1.64961
 21
0.26756
  0
LINE
  8
Engraving
 62
   255
 39
0.008
  6
CONTINUOUS
 10
1.64961
 20
0.26756
 30
 0
 11
1.65232
 21
0.26650
  0
LINE
  8
Engraving
 62
   255
 39
0.008
  6
CONTINUOUS
 10
1.65232
 20
0.26650
 30
 0
 11
1.65512
 21
0.26594
  0
LINE
  8
Engraving
 62
   255
 39
0.008
  6
CONTINUOUS
 10
1.65512
 20
0.26594
 30
 0
 11
1.65512
 21
0.26594
  0
LINE
  8
Engraving
 62
   255
 39
0.008
  6
CONTINUOUS
 10
1.65512
 20
0.26594
 30
 0
 11
1.65776
 21
0.26630
  0
LINE
  8
Engraving
 62
   255
 39
0.008
  6
CONTINUOUS
 10
1.65776
 20
0.26630
 30
 0
 11
1.66039
 21
0.26709
  0
LINE
  8
Engraving
 62
   255
 39
0.008
  6
CONTINUOUS
 10
1.66039
 20
0.26709
 30
 0
 11
1.66287
 21
0.26831
  0
LINE
  8
Engraving
 62
   255
 39
0.008
  6
CONTINUOUS
 10
1.66287
 20
0.26831
 30
 0
 11
1.66520
 21
0.26996
  0
LINE
  8
Engraving
 62
   255
 39
0.008
  6
CONTINUOUS
 10
1.66520
 20
0.26996
 30
 0
 11
1.66732
 21
0.27197
  0
LINE
  8
Engraving
 62
   255
 39
0.008
  6
CONTINUOUS
 10
1.66732
 20
0.27197
 30
 0
 11
1.66921
 21
0.27433
  0
LINE
  8
Engraving
 62
   255
 39
0.008
  6
CONTINUOUS
 10
1.66921
 20
0.27433
 30
 0
 11
1.67079
 21
0.27697
  0
LINE
  8
Engraving
 62
   255
 39
0.008
  6
CONTINUOUS
 10
1.67079
 20
0.27697
 30
 0
 11
1.67213
 21
0.27988
  0
LINE
  8
Engraving
 62
   255
 39
0.008
  6
CONTINUOUS
 10
1.67213
 20
0.27988
 30
 0
 11
1.67311
 21
0.28299
  0
LINE
  8
Engraving
 62
   255
 39
0.008
  6
CONTINUOUS
 10
1.67311
 20
0.28299
 30
 0
 11
1.67374
 21
0.28626
  0
LINE
  8
Engraving
 62
   255
 39
0.008
  6
CONTINUOUS
 10
1.67374
 20
0.28626
 30
 0
 11
1.67402
 21
0.28957
  0
LINE
  8
Engraving
 62
   255
 39
0.008
  6
CONTINUOUS
 10
1.67402
 20
0.28957
 30
 0
 11
1.67402
 21
0.28957
  0
LINE
  8
Engraving
 62
   255
 39
0.008
  6
CONTINUOUS
 10
1.67402
 20
0.28957
 30
 0
 11
1.67402
 21
0.36043
  0
LINE
  8
Engraving
 62
   255
 39
0.008
  6
CONTINUOUS
 10
1.67402
 20
0.36043
 30
 0
 11
1.67378
 21
0.36394
  0
LINE
  8
Engraving
 62
   255
 39
0.008
  6
CONTINUOUS
 10
1.67378
 20
0.36394
 30
 0
 11
1.67315
 21
0.36740
  0
LINE
  8
Engraving
 62
   255
 39
0.008
  6
CONTINUOUS
 10
1.67315
 20
0.36740
 30
 0
 11
1.67217
 21
0.37067
  0
LINE
  8
Engraving
 62
   255
 39
0.008
  6
CONTINUOUS
 10
1.67217
 20
0.37067
 30
 0
 11
1.67075
 21
0.37374
  0
LINE
  8
Engraving
 62
   255
 39
0.008
  6
CONTINUOUS
 10
1.67075
 20
0.37374
 30
 0
 11
1.66898
 21
0.37650
  0
LINE
  8
Engraving
 62
   255
 39
0.008
  6
CONTINUOUS
 10
1.66898
 20
0.37650
 30
 0
 11
1.66689
 21
0.37890
  0
LINE
  8
Engraving
 62
   255
 39
0.008
  6
CONTINUOUS
 10
1.66689
 20
0.37890
 30
 0
 11
1.66457
 21
0.38091
  0
LINE
  8
Engraving
 62
   255
 39
0.008
  6
CONTINUOUS
 10
1.66457
 20
0.38091
 30
 0
 11
1.66201
 21
0.38244
  0
LINE
  8
Engraving
 62
   255
 39
0.008
  6
CONTINUOUS
 10
1.66201
 20
0.38244
 30
 0
 11
1.65933
 21
0.38346
  0
LINE
  8
Engraving
 62
   255
 39
0.008
  6
CONTINUOUS
 10
1.65933
 20
0.38346
 30
 0
 11
1.65654
 21
0.38398
  0
LINE
  8
Engraving
 62
   255
 39
0.008
  6
CONTINUOUS
 10
1.65654
 20
0.38398
 30
 0
 11
1.65370
 21
0.38398
  0
LINE
  8
Engraving
 62
   255
 39
0.008
  6
CONTINUOUS
 10
1.65370
 20
0.38398
 30
 0
 11
1.65091
 21
0.38346
  0
LINE
  8
Engraving
 62
   255
 39
0.008
  6
CONTINUOUS
 10
1.65091
 20
0.38346
 30
 0
 11
1.64823
 21
0.38244
  0
LINE
  8
Engraving
 62
   255
 39
0.008
  6
CONTINUOUS
 10
1.64823
 20
0.38244
 30
 0
 11
1.64567
 21
0.38091
  0
LINE
  8
Engraving
 62
   255
 39
0.008
  6
CONTINUOUS
 10
1.64567
 20
0.38091
 30
 0
 11
1.64335
 21
0.37890
  0
LINE
  8
Engraving
 62
   255
 39
0.008
  6
CONTINUOUS
 10
1.64335
 20
0.37890
 30
 0
 11
1.64126
 21
0.37650
  0
LINE
  8
Engraving
 62
   255
 39
0.008
  6
CONTINUOUS
 10
1.64126
 20
0.37650
 30
 0
 11
1.63949
 21
0.37374
  0
LINE
  8
Engraving
 62
   255
 39
0.008
  6
CONTINUOUS
 10
1.63949
 20
0.37374
 30
 0
 11
1.63807
 21
0.37067
  0
LINE
  8
Engraving
 62
   255
 39
0.008
  6
CONTINUOUS
 10
1.63807
 20
0.37067
 30
 0
 11
1.63709
 21
0.36740
  0
LINE
  8
Engraving
 62
   255
 39
0.008
  6
CONTINUOUS
 10
1.63709
 20
0.36740
 30
 0
 11
1.63646
 21
0.36394
  0
LINE
  8
Engraving
 62
   255
 39
0.008
  6
CONTINUOUS
 10
1.63646
 20
0.36394
 30
 0
 11
1.63622
 21
0.36043
  0
LINE
  8
Engraving
 62
   255
 39
0.008
  6
CONTINUOUS
 10
1.63622
 20
0.36043
 30
 0
 11
1.63622
 21
0.36043
  0
LINE
  8
Engraving
 62
   255
 39
0.008
  6
CONTINUOUS
 10
1.63622
 20
0.36043
 30
 0
 11
1.63622
 21
0.34272
  0
LINE
  8
Engraving
 62
   255
 39
0.008
  6
CONTINUOUS
 10
1.63622
 20
0.34272
 30
 0
 11
1.63677
 21
0.33917
  0
LINE
  8
Engraving
 62
   255
 39
0.008
  6
CONTINUOUS
 10
1.63677
 20
0.33917
 30
 0
 11
1.63772
 21
0.33575
  0
LINE
  8
Engraving
 62
   255
 39
0.008
  6
CONTINUOUS
 10
1.63772
 20
0.33575
 30
 0
 11
1.63906
 21
0.33252
  0
LINE
  8
Engraving
 62
   255
 39
0.008
  6
CONTINUOUS
 10
1.63906
 20
0.33252
 30
 0
 11
1.64079
 21
0.32961
  0
LINE
  8
Engraving
 62
   255
 39
0.008
  6
CONTINUOUS
 10
1.64079
 20
0.32961
 30
 0
 11
1.64280
 21
0.32701
  0
LINE
  8
Engraving
 62
   255
 39
0.008
  6
CONTINUOUS
 10
1.64280
 20
0.32701
 30
 0
 11
1.64512
 21
0.32484
  0
LINE
  8
Engraving
 62
   255
 39
0.008
  6
CONTINUOUS
 10
1.64512
 20
0.32484
 30
 0
 11
1.64768
 21
0.32311
  0
LINE
  8
Engraving
 62
   255
 39
0.008
  6
CONTINUOUS
 10
1.64768
 20
0.32311
 30
 0
 11
1.65043
 21
0.32189
  0
LINE
  8
Engraving
 62
   255
 39
0.008
  6
CONTINUOUS
 10
1.65043
 20
0.32189
 30
 0
 11
1.65327
 21
0.32118
  0
LINE
  8
Engraving
 62
   255
 39
0.008
  6
CONTINUOUS
 10
1.65327
 20
0.32118
 30
 0
 11
1.65614
 21
0.32098
  0
LINE
  8
Engraving
 62
   255
 39
0.008
  6
CONTINUOUS
 10
1.65614
 20
0.32098
 30
 0
 11
1.65902
 21
0.32134
  0
LINE
  8
Engraving
 62
   255
 39
0.008
  6
CONTINUOUS
 10
1.65902
 20
0.32134
 30
 0
 11
1.66185
 21
0.32224
  0
LINE
  8
Engraving
 62
   255
 39
0.008
  6
CONTINUOUS
 10
1.66185
 20
0.32224
 30
 0
 11
1.66453
 21
0.32362
  0
LINE
  8
Engraving
 62
   255
 39
0.008
  6
CONTINUOUS
 10
1.66453
 20
0.32362
 30
 0
 11
1.66701
 21
0.32551
  0
LINE
  8
Engraving
 62
   255
 39
0.008
  6
CONTINUOUS
 10
1.66701
 20
0.32551
 30
 0
 11
1.66925
 21
0.32780
  0
LINE
  8
Engraving
 62
   255
 39
0.008
  6
CONTINUOUS
 10
1.66925
 20
0.32780
 30
 0
 11
1.67118
 21
0.33051
  0
LINE
  8
Engraving
 62
   255
 39
0.008
  6
CONTINUOUS
 10
1.67118
 20
0.33051
 30
 0
 11
1.67280
 21
0.33354
  0
LINE
  8
Engraving
 62
   255
 39
0.008
  6
CONTINUOUS
 10
1.67280
 20
0.33354
 30
 0
 11
1.67402
 21
0.33681
  0
LINE
  8
Engraving
 62
   255
 39
0.008
  6
CONTINUOUS
 10
1.67402
 20
0.33681
 30
 0
 11
1.67402
 21
0.33681
  0
LINE
  8
Engraving
 62
   255
 39
0.008
  6
CONTINUOUS
 10
1.77638
 20
0.38406
 30
 0
 11
1.77638
 21
0.26594
  0
LINE
  8
Engraving
 62
   255
 39
0.008
  6
CONTINUOUS
 10
1.77638
 20
0.26594
 30
 0
 11
1.77638
 21
0.30728
  0
LINE
  8
Engraving
 62
   255
 39
0.008
  6
CONTINUOUS
 10
1.77638
 20
0.30728
 30
 0
 11
1.81890
 21
0.38406
  0
LINE
  8
Engraving
 62
   255
 39
0.008
  6
CONTINUOUS
 10
1.79291
 20
0.33681
 30
 0
 11
1.81890
 21
0.26594
  0
LINE
  8
Engraving
 62
   255
 39
0.008
  6
CONTINUOUS
 10
1.84567
 20
0.38406
 30
 0
 11
1.84567
 21
0.26594
  0
LINE
  8
Engraving
 62
   255
 39
0.008
  6
CONTINUOUS
 10
1.91339
 20
0.35846
 30
 0
 11
1.91315
 21
0.36228
  0
LINE
  8
Engraving
 62
   255
 39
0.008
  6
CONTINUOUS
 10
1.91315
 20
0.36228
 30
 0
 11
1.91248
 21
0.36602
  0
LINE
  8
Engraving
 62
   255
 39
0.008
  6
CONTINUOUS
 10
1.91248
 20
0.36602
 30
 0
 11
1.91138
 21
0.36957
  0
LINE
  8
Engraving
 62
   255
 39
0.008
  6
CONTINUOUS
 10
1.91138
 20
0.36957
 30
 0
 11
1.90984
 21
0.37287
  0
LINE
  8
Engraving
 62
   255
 39
0.008
  6
CONTINUOUS
 10
1.90984
 20
0.37287
 30
 0
 11
1.90791
 21
0.37587
  0
LINE
  8
Engraving
 62
   255
 39
0.008
  6
CONTINUOUS
 10
1.90791
 20
0.37587
 30
 0
 11
1.90567
 21
0.37846
  0
LINE
  8
Engraving
 62
   255
 39
0.008
  6
CONTINUOUS
 10
1.90567
 20
0.37846
 30
 0
 11
1.90315
 21
0.38063
  0
LINE
  8
Engraving
 62
   255
 39
0.008
  6
CONTINUOUS
 10
1.90315
 20
0.38063
 30
 0
 11
1.90039
 21
0.38228
  0
LINE
  8
Engraving
 62
   255
 39
0.008
  6
CONTINUOUS
 10
1.90039
 20
0.38228
 30
 0
 11
1.89748
 21
0.38343
  0
LINE
  8
Engraving
 62
   255
 39
0.008
  6
CONTINUOUS
 10
1.89748
 20
0.38343
 30
 0
 11
1.89445
 21
0.38398
  0
LINE
  8
Engraving
 62
   255
 39
0.008
  6
CONTINUOUS
 10
1.89445
 20
0.38398
 30
 0
 11
1.89138
 21
0.38398
  0
LINE
  8
Engraving
 62
   255
 39
0.008
  6
CONTINUOUS
 10
1.89138
 20
0.38398
 30
 0
 11
1.88835
 21
0.38343
  0
LINE
  8
Engraving
 62
   255
 39
0.008
  6
CONTINUOUS
 10
1.88835
 20
0.38343
 30
 0
 11
1.88543
 21
0.38228
  0
LINE
  8
Engraving
 62
   255
 39
0.008
  6
CONTINUOUS
 10
1.88543
 20
0.38228
 30
 0
 11
1.88268
 21
0.38063
  0
LINE
  8
Engraving
 62
   255
 39
0.008
  6
CONTINUOUS
 10
1.88268
 20
0.38063
 30
 0
 11
1.88016
 21
0.37846
  0
LINE
  8
Engraving
 62
   255
 39
0.008
  6
CONTINUOUS
 10
1.88016
 20
0.37846
 30
 0
 11
1.87791
 21
0.37587
  0
LINE
  8
Engraving
 62
   255
 39
0.008
  6
CONTINUOUS
 10
1.87791
 20
0.37587
 30
 0
 11
1.87598
 21
0.37287
  0
LINE
  8
Engraving
 62
   255
 39
0.008
  6
CONTINUOUS
 10
1.87598
 20
0.37287
 30
 0
 11
1.87445
 21
0.36957
  0
LINE
  8
Engraving
 62
   255
 39
0.008
  6
CONTINUOUS
 10
1.87445
 20
0.36957
 30
 0
 11
1.87335
 21
0.36602
  0
LINE
  8
Engraving
 62
   255
 39
0.008
  6
CONTINUOUS
 10
1.87335
 20
0.36602
 30
 0
 11
1.87268
 21
0.36228
  0
LINE
  8
Engraving
 62
   255
 39
0.008
  6
CONTINUOUS
 10
1.87268
 20
0.36228
 30
 0
 11
1.87244
 21
0.35846
  0
LINE
  8
Engraving
 62
   255
 39
0.008
  6
CONTINUOUS
 10
1.87244
 20
0.35846
 30
 0
 11
1.87244
 21
0.35846
  0
LINE
  8
Engraving
 62
   255
 39
0.008
  6
CONTINUOUS
 10
1.87244
 20
0.35846
 30
 0
 11
1.87244
 21
0.29154
  0
LINE
  8
Engraving
 62
   255
 39
0.008
  6
CONTINUOUS
 10
1.87244
 20
0.29154
 30
 0
 11
1.87268
 21
0.28772
  0
LINE
  8
Engraving
 62
   255
 39
0.008
  6
CONTINUOUS
 10
1.87268
 20
0.28772
 30
 0
 11
1.87335
 21
0.28398
  0
LINE
  8
Engraving
 62
   255
 39
0.008
  6
CONTINUOUS
 10
1.87335
 20
0.28398
 30
 0
 11
1.87445
 21
0.28043
  0
LINE
  8
Engraving
 62
   255
 39
0.008
  6
CONTINUOUS
 10
1.87445
 20
0.28043
 30
 0
 11
1.87598
 21
0.27713
  0
LINE
  8
Engraving
 62
   255
 39
0.008
  6
CONTINUOUS
 10
1.87598
 20
0.27713
 30
 0
 11
1.87791
 21
0.27413
  0
LINE
  8
Engraving
 62
   255
 39
0.008
  6
CONTINUOUS
 10
1.87791
 20
0.27413
 30
 0
 11
1.88016
 21
0.27154
  0
LINE
  8
Engraving
 62
   255
 39
0.008
  6
CONTINUOUS
 10
1.88016
 20
0.27154
 30
 0
 11
1.88268
 21
0.26937
  0
LINE
  8
Engraving
 62
   255
 39
0.008
  6
CONTINUOUS
 10
1.88268
 20
0.26937
 30
 0
 11
1.88543
 21
0.26772
  0
LINE
  8
Engraving
 62
   255
 39
0.008
  6
CONTINUOUS
 10
1.88543
 20
0.26772
 30
 0
 11
1.88835
 21
0.26657
  0
LINE
  8
Engraving
 62
   255
 39
0.008
  6
CONTINUOUS
 10
1.88835
 20
0.26657
 30
 0
 11
1.89138
 21
0.26602
  0
LINE
  8
Engraving
 62
   255
 39
0.008
  6
CONTINUOUS
 10
1.89138
 20
0.26602
 30
 0
 11
1.89445
 21
0.26602
  0
LINE
  8
Engraving
 62
   255
 39
0.008
  6
CONTINUOUS
 10
1.89445
 20
0.26602
 30
 0
 11
1.89748
 21
0.26657
  0
LINE
  8
Engraving
 62
   255
 39
0.008
  6
CONTINUOUS
 10
1.89748
 20
0.26657
 30
 0
 11
1.90039
 21
0.26772
  0
LINE
  8
Engraving
 62
   255
 39
0.008
  6
CONTINUOUS
 10
1.90039
 20
0.26772
 30
 0
 11
1.90315
 21
0.26937
  0
LINE
  8
Engraving
 62
   255
 39
0.008
  6
CONTINUOUS
 10
1.90315
 20
0.26937
 30
 0
 11
1.90567
 21
0.27154
  0
LINE
  8
Engraving
 62
   255
 39
0.008
  6
CONTINUOUS
 10
1.90567
 20
0.27154
 30
 0
 11
1.90791
 21
0.27413
  0
LINE
  8
Engraving
 62
   255
 39
0.008
  6
CONTINUOUS
 10
1.90791
 20
0.27413
 30
 0
 11
1.90984
 21
0.27713
  0
LINE
  8
Engraving
 62
   255
 39
0.008
  6
CONTINUOUS
 10
1.90984
 20
0.27713
 30
 0
 11
1.91138
 21
0.28043
  0
LINE
  8
Engraving
 62
   255
 39
0.008
  6
CONTINUOUS
 10
1.91138
 20
0.28043
 30
 0
 11
1.91248
 21
0.28398
  0
LINE
  8
Engraving
 62
   255
 39
0.008
  6
CONTINUOUS
 10
1.91248
 20
0.28398
 30
 0
 11
1.91315
 21
0.28772
  0
LINE
  8
Engraving
 62
   255
 39
0.008
  6
CONTINUOUS
 10
1.91315
 20
0.28772
 30
 0
 11
1.91339
 21
0.29154
  0
LINE
  8
Engraving
 62
   255
 39
0.008
  6
CONTINUOUS
 10
1.91339
 20
0.29154
 30
 0
 11
1.91339
 21
0.29154
  0
LINE
  8
Engraving
 62
   255
 39
0.008
  6
CONTINUOUS
 10
1.94016
 20
0.38406
 30
 0
 11
1.94016
 21
0.26594
  0
LINE
  8
Engraving
 62
   255
 39
0.008
  6
CONTINUOUS
 10
1.94016
 20
0.26594
 30
 0
 11
1.94016
 21
0.30728
  0
LINE
  8
Engraving
 62
   255
 39
0.008
  6
CONTINUOUS
 10
1.94016
 20
0.30728
 30
 0
 11
1.98268
 21
0.38406
  0
LINE
  8
Engraving
 62
   255
 39
0.008
  6
CONTINUOUS
 10
1.95669
 20
0.33681
 30
 0
 11
1.98268
 21
0.26594
  0
LINE
  8
Engraving
 62
   255
 39
0.008
  6
CONTINUOUS
 10
0.64866
 20
7.04453
 30
 0
 11
0.68055
 21
7.16264
  0
LINE
  8
Engraving
 62
   255
 39
0.008
  6
CONTINUOUS
 10
0.68055
 20
7.16264
 30
 0
 11
0.71244
 21
7.04453
  0
LINE
  8
Engraving
 62
   255
 39
0.008
  6
CONTINUOUS
 10
0.65929
 20
7.07996
 30
 0
 11
0.70181
 21
7.07996
  0
LINE
  8
Engraving
 62
   255
 39
0.008
  6
CONTINUOUS
 10
0.74256
 20
7.16264
 30
 0
 11
0.79039
 21
7.16264
  0
LINE
  8
Engraving
 62
   255
 39
0.008
  6
CONTINUOUS
 10
0.79039
 20
7.16264
 30
 0
 11
0.76646
 21
7.16264
  0
LINE
  8
Engraving
 62
   255
 39
0.008
  6
CONTINUOUS
 10
0.76646
 20
7.16264
 30
 0
 11
0.76646
 21
7.04453
  0
LINE
  8
Engraving
 62
   255
 39
0.008
  6
CONTINUOUS
 10
0.82051
 20
7.16264
 30
 0
 11
0.86835
 21
7.16264
  0
LINE
  8
Engraving
 62
   255
 39
0.008
  6
CONTINUOUS
 10
0.86835
 20
7.16264
 30
 0
 11
0.84441
 21
7.16264
  0
LINE
  8
Engraving
 62
   255
 39
0.008
  6
CONTINUOUS
 10
0.84441
 20
7.16264
 30
 0
 11
0.84441
 21
7.04453
  0
LINE
  8
Engraving
 62
   255
 39
0.008
  6
CONTINUOUS
 10
0.89846
 20
7.04453
 30
 0
 11
0.93035
 21
7.16264
  0
LINE
  8
Engraving
 62
   255
 39
0.008
  6
CONTINUOUS
 10
0.93035
 20
7.16264
 30
 0
 11
0.96224
 21
7.04453
  0
LINE
  8
Engraving
 62
   255
 39
0.008
  6
CONTINUOUS
 10
0.90909
 20
7.07996
 30
 0
 11
0.95161
 21
7.07996
  0
LINE
  8
Engraving
 62
   255
 39
0.008
  6
CONTINUOUS
 10
1.03843
 20
7.13705
 30
 0
 11
1.03819
 21
7.14087
  0
LINE
  8
Engraving
 62
   255
 39
0.008
  6
CONTINUOUS
 10
1.03819
 20
7.14087
 30
 0
 11
1.03740
 21
7.14461
  0
LINE
  8
Engraving
 62
   255
 39
0.008
  6
CONTINUOUS
 10
1.03740
 20
7.14461
 30
 0
 11
1.03614
 21
7.14815
  0
LINE
  8
Engraving
 62
   255
 39
0.008
  6
CONTINUOUS
 10
1.03614
 20
7.14815
 30
 0
 11
1.03441
 21
7.15146
  0
LINE
  8
Engraving
 62
   255
 39
0.008
  6
CONTINUOUS
 10
1.03441
 20
7.15146
 30
 0
 11
1.03224
 21
7.15445
  0
LINE
  8
Engraving
 62
   255
 39
0.008
  6
CONTINUOUS
 10
1.03224
 20
7.15445
 30
 0
 11
1.02976
 21
7.15705
  0
LINE
  8
Engraving
 62
   255
 39
0.008
  6
CONTINUOUS
 10
1.02976
 20
7.15705
 30
 0
 11
1.02693
 21
7.15921
  0
LINE
  8
Engraving
 62
   255
 39
0.008
  6
CONTINUOUS
 10
1.02693
 20
7.15921
 30
 0
 11
1.02378
 21
7.16087
  0
LINE
  8
Engraving
 62
   255
 39
0.008
  6
CONTINUOUS
 10
1.02378
 20
7.16087
 30
 0
 11
1.02055
 21
7.16201
  0
LINE
  8
Engraving
 62
   255
 39
0.008
  6
CONTINUOUS
 10
1.02055
 20
7.16201
 30
 0
 11
1.01713
 21
7.16256
  0
LINE
  8
Engraving
 62
   255
 39
0.008
  6
CONTINUOUS
 10
1.01713
 20
7.16256
 30
 0
 11
1.01366
 21
7.16256
  0
LINE
  8
Engraving
 62
   255
 39
0.008
  6
CONTINUOUS
 10
1.01366
 20
7.16256
 30
 0
 11
1.01028
 21
7.16201
  0
LINE
  8
Engraving
 62
   255
 39
0.008
  6
CONTINUOUS
 10
1.01028
 20
7.16201
 30
 0
 11
1.00701
 21
7.16087
  0
LINE
  8
Engraving
 62
   255
 39
0.008
  6
CONTINUOUS
 10
1.00701
 20
7.16087
 30
 0
 11
1.00390
 21
7.15921
  0
LINE
  8
Engraving
 62
   255
 39
0.008
  6
CONTINUOUS
 10
1.00390
 20
7.15921
 30
 0
 11
1.00106
 21
7.15705
  0
LINE
  8
Engraving
 62
   255
 39
0.008
  6
CONTINUOUS
 10
1.00106
 20
7.15705
 30
 0
 11
0.99854
 21
7.15445
  0
LINE
  8
Engraving
 62
   255
 39
0.008
  6
CONTINUOUS
 10
0.99854
 20
7.15445
 30
 0
 11
0.99638
 21
7.15146
  0
LINE
  8
Engraving
 62
   255
 39
0.008
  6
CONTINUOUS
 10
0.99638
 20
7.15146
 30
 0
 11
0.99465
 21
7.14815
  0
LINE
  8
Engraving
 62
   255
 39
0.008
  6
CONTINUOUS
 10
0.99465
 20
7.14815
 30
 0
 11
0.99339
 21
7.14461
  0
LINE
  8
Engraving
 62
   255
 39
0.008
  6
CONTINUOUS
 10
0.99339
 20
7.14461
 30
 0
 11
0.99260
 21
7.14087
  0
LINE
  8
Engraving
 62
   255
 39
0.008
  6
CONTINUOUS
 10
0.99260
 20
7.14087
 30
 0
 11
0.99236
 21
7.13705
  0
LINE
  8
Engraving
 62
   255
 39
0.008
  6
CONTINUOUS
 10
0.99236
 20
7.13705
 30
 0
 11
0.99236
 21
7.13705
  0
LINE
  8
Engraving
 62
   255
 39
0.008
  6
CONTINUOUS
 10
0.99236
 20
7.13705
 30
 0
 11
0.99236
 21
7.07012
  0
LINE
  8
Engraving
 62
   255
 39
0.008
  6
CONTINUOUS
 10
0.99236
 20
7.07012
 30
 0
 11
0.99260
 21
7.06630
  0
LINE
  8
Engraving
 62
   255
 39
0.008
  6
CONTINUOUS
 10
0.99260
 20
7.06630
 30
 0
 11
0.99339
 21
7.06256
  0
LINE
  8
Engraving
 62
   255
 39
0.008
  6
CONTINUOUS
 10
0.99339
 20
7.06256
 30
 0
 11
0.99465
 21
7.05902
  0
LINE
  8
Engraving
 62
   255
 39
0.008
  6
CONTINUOUS
 10
0.99465
 20
7.05902
 30
 0
 11
0.99638
 21
7.05571
  0
LINE
  8
Engraving
 62
   255
 39
0.008
  6
CONTINUOUS
 10
0.99638
 20
7.05571
 30
 0
 11
0.99854
 21
7.05272
  0
LINE
  8
Engraving
 62
   255
 39
0.008
  6
CONTINUOUS
 10
0.99854
 20
7.05272
 30
 0
 11
1.00106
 21
7.05012
  0
LINE
  8
Engraving
 62
   255
 39
0.008
  6
CONTINUOUS
 10
1.00106
 20
7.05012
 30
 0
 11
1.00390
 21
7.04795
  0
LINE
  8
Engraving
 62
   255
 39
0.008
  6
CONTINUOUS
 10
1.00390
 20
7.04795
 30
 0
 11
1.00701
 21
7.04630
  0
LINE
  8
Engraving
 62
   255
 39
0.008
  6
CONTINUOUS
 10
1.00701
 20
7.04630
 30
 0
 11
1.01028
 21
7.04516
  0
LINE
  8
Engraving
 62
   255
 39
0.008
  6
CONTINUOUS
 10
1.01028
 20
7.04516
 30
 0
 11
1.01366
 21
7.04461
  0
LINE
  8
Engraving
 62
   255
 39
0.008
  6
CONTINUOUS
 10
1.01366
 20
7.04461
 30
 0
 11
1.01713
 21
7.04461
  0
LINE
  8
Engraving
 62
   255
 39
0.008
  6
CONTINUOUS
 10
1.01713
 20
7.04461
 30
 0
 11
1.02055
 21
7.04516
  0
LINE
  8
Engraving
 62
   255
 39
0.008
  6
CONTINUOUS
 10
1.02055
 20
7.04516
 30
 0
 11
1.02378
 21
7.04630
  0
LINE
  8
Engraving
 62
   255
 39
0.008
  6
CONTINUOUS
 10
1.02378
 20
7.04630
 30
 0
 11
1.02693
 21
7.04795
  0
LINE
  8
Engraving
 62
   255
 39
0.008
  6
CONTINUOUS
 10
1.02693
 20
7.04795
 30
 0
 11
1.02976
 21
7.05012
  0
LINE
  8
Engraving
 62
   255
 39
0.008
  6
CONTINUOUS
 10
1.02976
 20
7.05012
 30
 0
 11
1.03224
 21
7.05272
  0
LINE
  8
Engraving
 62
   255
 39
0.008
  6
CONTINUOUS
 10
1.03224
 20
7.05272
 30
 0
 11
1.03441
 21
7.05571
  0
LINE
  8
Engraving
 62
   255
 39
0.008
  6
CONTINUOUS
 10
1.03441
 20
7.05571
 30
 0
 11
1.03614
 21
7.05902
  0
LINE
  8
Engraving
 62
   255
 39
0.008
  6
CONTINUOUS
 10
1.03614
 20
7.05902
 30
 0
 11
1.03740
 21
7.06256
  0
LINE
  8
Engraving
 62
   255
 39
0.008
  6
CONTINUOUS
 10
1.03740
 20
7.06256
 30
 0
 11
1.03819
 21
7.06630
  0
LINE
  8
Engraving
 62
   255
 39
0.008
  6
CONTINUOUS
 10
1.03819
 20
7.06630
 30
 0
 11
1.03843
 21
7.07012
  0
LINE
  8
Engraving
 62
   255
 39
0.008
  6
CONTINUOUS
 10
1.03843
 20
7.07012
 30
 0
 11
1.03843
 21
7.07012
  0
LINE
  8
Engraving
 62
   255
 39
0.008
  6
CONTINUOUS
 10
1.06854
 20
7.16264
 30
 0
 11
1.06854
 21
7.04453
  0
LINE
  8
Engraving
 62
   255
 39
0.008
  6
CONTINUOUS
 10
1.06854
 20
7.04453
 30
 0
 11
1.06854
 21
7.08587
  0
LINE
  8
Engraving
 62
   255
 39
0.008
  6
CONTINUOUS
 10
1.06854
 20
7.08587
 30
 0
 11
1.11638
 21
7.16264
  0
LINE
  8
Engraving
 62
   255
 39
0.008
  6
CONTINUOUS
 10
1.08717
 20
7.11539
 30
 0
 11
1.11638
 21
7.04453
  0
LINE
  8
Engraving
 62
   255
 39
0.008
  6
CONTINUOUS
 10
0.83331
 20
6.51634
 30
 0
 11
0.93173
 21
6.51634
  0
LINE
  8
Engraving
 62
   255
 39
0.008
  6
CONTINUOUS
 10
0.88252
 20
6.56555
 30
 0
 11
0.88252
 21
6.46713
  0
LINE
  8
Engraving
 62
   255
 39
0.008
  6
CONTINUOUS
 10
0.63646
 20
6.09012
 30
 0
 11
0.77421
 21
6.32878
  0
LINE
  8
Engraving
 62
   255
 39
0.008
  6
CONTINUOUS
 10
0.77421
 20
6.32878
 30
 0
 11
0.77425
 21
6.32878
  0
LINE
  8
Engraving
 62
   255
 39
0.008
  6
CONTINUOUS
 10
1.12858
 20
6.09012
 30
 0
 11
0.99079
 21
6.32878
  0
LINE
  8
Engraving
 62
   255
 39
0.008
  6
CONTINUOUS
 10
0.99079
 20
6.32878
 30
 0
 11
0.99079
 21
6.32878
  0
LINE
  8
Engraving
 62
   255
 39
0.008
  6
CONTINUOUS
 10
1.07004
 20
6.40803
 30
 0
 11
1.07004
 21
6.40803
  0
LINE
  8
Engraving
 62
   255
 39
0.008
  6
CONTINUOUS
 10
1.07004
 20
6.40803
 30
 0
 11
1.30870
 21
6.27024
  0
LINE
  8
Engraving
 62
   255
 39
0.008
  6
CONTINUOUS
 10
1.37465
 20
6.51634
 30
 0
 11
1.09906
 21
6.51634
  0
LINE
  8
Engraving
 62
   255
 39
0.008
  6
CONTINUOUS
 10
1.09906
 20
6.51634
 30
 0
 11
1.09906
 21
6.51634
  0
LINE
  8
Engraving
 62
   255
 39
0.008
  6
CONTINUOUS
 10
1.07004
 20
6.62461
 30
 0
 11
1.07004
 21
6.62461
  0
LINE
  8
Engraving
 62
   255
 39
0.008
  6
CONTINUOUS
 10
1.07004
 20
6.62461
 30
 0
 11
1.30870
 21
6.76240
  0
LINE
  8
Engraving
 62
   255
 39
0.008
  6
CONTINUOUS
 10
1.12854
 20
6.94252
 30
 0
 11
0.99079
 21
6.70386
  0
LINE
  8
Engraving
 62
   255
 39
0.008
  6
CONTINUOUS
 10
0.99079
 20
6.70386
 30
 0
 11
0.99075
 21
6.70386
  0
LINE
  8
Engraving
 62
   255
 39
0.008
  6
CONTINUOUS
 10
0.88252
 20
6.73287
 30
 0
 11
0.88252
 21
6.73287
  0
LINE
  8
Engraving
 62
   255
 39
0.008
  6
CONTINUOUS
 10
0.88252
 20
6.73287
 30
 0
 11
0.88252
 21
7.00846
  0
LINE
  8
Engraving
 62
   255
 39
0.008
  6
CONTINUOUS
 10
0.63646
 20
6.94252
 30
 0
 11
0.77425
 21
6.70386
  0
LINE
  8
Engraving
 62
   255
 39
0.008
  6
CONTINUOUS
 10
0.77425
 20
6.70386
 30
 0
 11
0.77425
 21
6.70386
  0
LINE
  8
Engraving
 62
   255
 39
0.008
  6
CONTINUOUS
 10
0.69496
 20
6.62457
 30
 0
 11
0.69496
 21
6.62461
  0
LINE
  8
Engraving
 62
   255
 39
0.008
  6
CONTINUOUS
 10
0.69496
 20
6.62461
 30
 0
 11
0.45630
 21
6.76236
  0
LINE
  8
Engraving
 62
   255
 39
0.008
  6
CONTINUOUS
 10
0.39039
 20
6.51634
 30
 0
 11
0.66598
 21
6.51634
  0
LINE
  8
Engraving
 62
   255
 39
0.008
  6
CONTINUOUS
 10
0.66598
 20
6.51634
 30
 0
 11
0.66598
 21
6.51634
  0
LINE
  8
Engraving
 62
   255
 39
0.008
  6
CONTINUOUS
 10
0.69496
 20
6.40807
 30
 0
 11
0.69496
 21
6.40807
  0
LINE
  8
Engraving
 62
   255
 39
0.008
  6
CONTINUOUS
 10
0.69496
 20
6.40807
 30
 0
 11
0.45630
 21
6.27028
  0
LINE
  8
Engraving
 62
   255
 39
0.008
  6
CONTINUOUS
 10
2.41559
 20
8.35476
 30
 0
 11
2.41559
 21
8.47287
  0
LINE
  8
Engraving
 62
   255
 39
0.008
  6
CONTINUOUS
 10
2.41559
 20
8.47287
 30
 0
 11
2.43685
 21
8.47287
  0
LINE
  8
Engraving
 62
   255
 39
0.008
  6
CONTINUOUS
 10
2.43685
 20
8.47287
 30
 0
 11
2.44075
 21
8.47260
  0
LINE
  8
Engraving
 62
   255
 39
0.008
  6
CONTINUOUS
 10
2.44075
 20
8.47260
 30
 0
 11
2.44453
 21
8.47165
  0
LINE
  8
Engraving
 62
   255
 39
0.008
  6
CONTINUOUS
 10
2.44453
 20
8.47165
 30
 0
 11
2.44819
 21
8.47012
  0
LINE
  8
Engraving
 62
   255
 39
0.008
  6
CONTINUOUS
 10
2.44819
 20
8.47012
 30
 0
 11
2.45154
 21
8.46803
  0
LINE
  8
Engraving
 62
   255
 39
0.008
  6
CONTINUOUS
 10
2.45154
 20
8.46803
 30
 0
 11
2.45461
 21
8.46539
  0
LINE
  8
Engraving
 62
   255
 39
0.008
  6
CONTINUOUS
 10
2.45461
 20
8.46539
 30
 0
 11
2.45732
 21
8.46232
  0
LINE
  8
Engraving
 62
   255
 39
0.008
  6
CONTINUOUS
 10
2.45732
 20
8.46232
 30
 0
 11
2.45957
 21
8.45878
  0
LINE
  8
Engraving
 62
   255
 39
0.008
  6
CONTINUOUS
 10
2.45957
 20
8.45878
 30
 0
 11
2.46134
 21
8.45496
  0
LINE
  8
Engraving
 62
   255
 39
0.008
  6
CONTINUOUS
 10
2.46134
 20
8.45496
 30
 0
 11
2.46260
 21
8.45087
  0
LINE
  8
Engraving
 62
   255
 39
0.008
  6
CONTINUOUS
 10
2.46260
 20
8.45087
 30
 0
 11
2.46331
 21
8.44665
  0
LINE
  8
Engraving
 62
   255
 39
0.008
  6
CONTINUOUS
 10
2.46331
 20
8.44665
 30
 0
 11
2.46343
 21
8.44335
  0
LINE
  8
Engraving
 62
   255
 39
0.008
  6
CONTINUOUS
 10
2.46343
 20
8.44335
 30
 0
 11
2.46343
 21
8.38429
  0
LINE
  8
Engraving
 62
   255
 39
0.008
  6
CONTINUOUS
 10
2.46343
 20
8.38429
 30
 0
 11
2.46319
 21
8.38000
  0
LINE
  8
Engraving
 62
   255
 39
0.008
  6
CONTINUOUS
 10
2.46319
 20
8.38000
 30
 0
 11
2.46236
 21
8.37579
  0
LINE
  8
Engraving
 62
   255
 39
0.008
  6
CONTINUOUS
 10
2.46236
 20
8.37579
 30
 0
 11
2.46094
 21
8.37173
  0
LINE
  8
Engraving
 62
   255
 39
0.008
  6
CONTINUOUS
 10
2.46094
 20
8.37173
 30
 0
 11
2.45909
 21
8.36799
  0
LINE
  8
Engraving
 62
   255
 39
0.008
  6
CONTINUOUS
 10
2.45909
 20
8.36799
 30
 0
 11
2.45669
 21
8.36457
  0
LINE
  8
Engraving
 62
   255
 39
0.008
  6
CONTINUOUS
 10
2.45669
 20
8.36457
 30
 0
 11
2.45394
 21
8.36157
  0
LINE
  8
Engraving
 62
   255
 39
0.008
  6
CONTINUOUS
 10
2.45394
 20
8.36157
 30
 0
 11
2.45075
 21
8.35906
  0
LINE
  8
Engraving
 62
   255
 39
0.008
  6
CONTINUOUS
 10
2.45075
 20
8.35906
 30
 0
 11
2.44732
 21
8.35709
  0
LINE
  8
Engraving
 62
   255
 39
0.008
  6
CONTINUOUS
 10
2.44732
 20
8.35709
 30
 0
 11
2.44362
 21
8.35571
  0
LINE
  8
Engraving
 62
   255
 39
0.008
  6
CONTINUOUS
 10
2.44362
 20
8.35571
 30
 0
 11
2.43984
 21
8.35492
  0
LINE
  8
Engraving
 62
   255
 39
0.008
  6
CONTINUOUS
 10
2.43984
 20
8.35492
 30
 0
 11
2.43685
 21
8.35476
  0
LINE
  8
Engraving
 62
   255
 39
0.008
  6
CONTINUOUS
 10
2.43685
 20
8.35476
 30
 0
 11
2.41559
 21
8.35476
  0
LINE
  8
Engraving
 62
   255
 39
0.008
  6
CONTINUOUS
 10
2.54138
 20
8.47287
 30
 0
 11
2.49354
 21
8.47287
  0
LINE
  8
Engraving
 62
   255
 39
0.008
  6
CONTINUOUS
 10
2.49354
 20
8.47287
 30
 0
 11
2.49354
 21
8.35476
  0
LINE
  8
Engraving
 62
   255
 39
0.008
  6
CONTINUOUS
 10
2.49354
 20
8.35476
 30
 0
 11
2.54138
 21
8.35476
  0
LINE
  8
Engraving
 62
   255
 39
0.008
  6
CONTINUOUS
 10
2.49354
 20
8.41382
 30
 0
 11
2.53343
 21
8.41382
  0
LINE
  8
Engraving
 62
   255
 39
0.008
  6
CONTINUOUS
 10
2.61760
 20
8.44728
 30
 0
 11
2.61732
 21
8.45110
  0
LINE
  8
Engraving
 62
   255
 39
0.008
  6
CONTINUOUS
 10
2.61732
 20
8.45110
 30
 0
 11
2.61654
 21
8.45484
  0
LINE
  8
Engraving
 62
   255
 39
0.008
  6
CONTINUOUS
 10
2.61654
 20
8.45484
 30
 0
 11
2.61531
 21
8.45839
  0
LINE
  8
Engraving
 62
   255
 39
0.008
  6
CONTINUOUS
 10
2.61531
 20
8.45839
 30
 0
 11
2.61358
 21
8.46169
  0
LINE
  8
Engraving
 62
   255
 39
0.008
  6
CONTINUOUS
 10
2.61358
 20
8.46169
 30
 0
 11
2.61142
 21
8.46469
  0
LINE
  8
Engraving
 62
   255
 39
0.008
  6
CONTINUOUS
 10
2.61142
 20
8.46469
 30
 0
 11
2.60890
 21
8.46728
  0
LINE
  8
Engraving
 62
   255
 39
0.008
  6
CONTINUOUS
 10
2.60890
 20
8.46728
 30
 0
 11
2.60606
 21
8.46945
  0
LINE
  8
Engraving
 62
   255
 39
0.008
  6
CONTINUOUS
 10
2.60606
 20
8.46945
 30
 0
 11
2.60295
 21
8.47110
  0
LINE
  8
Engraving
 62
   255
 39
0.008
  6
CONTINUOUS
 10
2.60295
 20
8.47110
 30
 0
 11
2.59969
 21
8.47224
  0
LINE
  8
Engraving
 62
   255
 39
0.008
  6
CONTINUOUS
 10
2.59969
 20
8.47224
 30
 0
 11
2.59630
 21
8.47280
  0
LINE
  8
Engraving
 62
   255
 39
0.008
  6
CONTINUOUS
 10
2.59630
 20
8.47280
 30
 0
 11
2.59280
 21
8.47280
  0
LINE
  8
Engraving
 62
   255
 39
0.008
  6
CONTINUOUS
 10
2.59280
 20
8.47280
 30
 0
 11
2.58941
 21
8.47224
  0
LINE
  8
Engraving
 62
   255
 39
0.008
  6
CONTINUOUS
 10
2.58941
 20
8.47224
 30
 0
 11
2.58614
 21
8.47110
  0
LINE
  8
Engraving
 62
   255
 39
0.008
  6
CONTINUOUS
 10
2.58614
 20
8.47110
 30
 0
 11
2.58303
 21
8.46945
  0
LINE
  8
Engraving
 62
   255
 39
0.008
  6
CONTINUOUS
 10
2.58303
 20
8.46945
 30
 0
 11
2.58020
 21
8.46728
  0
LINE
  8
Engraving
 62
   255
 39
0.008
  6
CONTINUOUS
 10
2.58020
 20
8.46728
 30
 0
 11
2.57768
 21
8.46469
  0
LINE
  8
Engraving
 62
   255
 39
0.008
  6
CONTINUOUS
 10
2.57768
 20
8.46469
 30
 0
 11
2.57551
 21
8.46169
  0
LINE
  8
Engraving
 62
   255
 39
0.008
  6
CONTINUOUS
 10
2.57551
 20
8.46169
 30
 0
 11
2.57378
 21
8.45839
  0
LINE
  8
Engraving
 62
   255
 39
0.008
  6
CONTINUOUS
 10
2.57378
 20
8.45839
 30
 0
 11
2.57256
 21
8.45484
  0
LINE
  8
Engraving
 62
   255
 39
0.008
  6
CONTINUOUS
 10
2.57256
 20
8.45484
 30
 0
 11
2.57177
 21
8.45110
  0
LINE
  8
Engraving
 62
   255
 39
0.008
  6
CONTINUOUS
 10
2.57177
 20
8.45110
 30
 0
 11
2.57150
 21
8.44728
  0
LINE
  8
Engraving
 62
   255
 39
0.008
  6
CONTINUOUS
 10
2.57150
 20
8.44728
 30
 0
 11
2.57150
 21
8.44728
  0
LINE
  8
Engraving
 62
   255
 39
0.008
  6
CONTINUOUS
 10
2.57150
 20
8.44728
 30
 0
 11
2.57150
 21
8.38035
  0
LINE
  8
Engraving
 62
   255
 39
0.008
  6
CONTINUOUS
 10
2.57150
 20
8.38035
 30
 0
 11
2.57177
 21
8.37654
  0
LINE
  8
Engraving
 62
   255
 39
0.008
  6
CONTINUOUS
 10
2.57177
 20
8.37654
 30
 0
 11
2.57256
 21
8.37280
  0
LINE
  8
Engraving
 62
   255
 39
0.008
  6
CONTINUOUS
 10
2.57256
 20
8.37280
 30
 0
 11
2.57378
 21
8.36925
  0
LINE
  8
Engraving
 62
   255
 39
0.008
  6
CONTINUOUS
 10
2.57378
 20
8.36925
 30
 0
 11
2.57551
 21
8.36594
  0
LINE
  8
Engraving
 62
   255
 39
0.008
  6
CONTINUOUS
 10
2.57551
 20
8.36594
 30
 0
 11
2.57768
 21
8.36295
  0
LINE
  8
Engraving
 62
   255
 39
0.008
  6
CONTINUOUS
 10
2.57768
 20
8.36295
 30
 0
 11
2.58020
 21
8.36035
  0
LINE
  8
Engraving
 62
   255
 39
0.008
  6
CONTINUOUS
 10
2.58020
 20
8.36035
 30
 0
 11
2.58303
 21
8.35819
  0
LINE
  8
Engraving
 62
   255
 39
0.008
  6
CONTINUOUS
 10
2.58303
 20
8.35819
 30
 0
 11
2.58614
 21
8.35654
  0
LINE
  8
Engraving
 62
   255
 39
0.008
  6
CONTINUOUS
 10
2.58614
 20
8.35654
 30
 0
 11
2.58941
 21
8.35539
  0
LINE
  8
Engraving
 62
   255
 39
0.008
  6
CONTINUOUS
 10
2.58941
 20
8.35539
 30
 0
 11
2.59280
 21
8.35484
  0
LINE
  8
Engraving
 62
   255
 39
0.008
  6
CONTINUOUS
 10
2.59280
 20
8.35484
 30
 0
 11
2.59630
 21
8.35484
  0
LINE
  8
Engraving
 62
   255
 39
0.008
  6
CONTINUOUS
 10
2.59630
 20
8.35484
 30
 0
 11
2.59969
 21
8.35539
  0
LINE
  8
Engraving
 62
   255
 39
0.008
  6
CONTINUOUS
 10
2.59969
 20
8.35539
 30
 0
 11
2.60295
 21
8.35654
  0
LINE
  8
Engraving
 62
   255
 39
0.008
  6
CONTINUOUS
 10
2.60295
 20
8.35654
 30
 0
 11
2.60606
 21
8.35819
  0
LINE
  8
Engraving
 62
   255
 39
0.008
  6
CONTINUOUS
 10
2.60606
 20
8.35819
 30
 0
 11
2.60890
 21
8.36035
  0
LINE
  8
Engraving
 62
   255
 39
0.008
  6
CONTINUOUS
 10
2.60890
 20
8.36035
 30
 0
 11
2.61142
 21
8.36295
  0
LINE
  8
Engraving
 62
   255
 39
0.008
  6
CONTINUOUS
 10
2.61142
 20
8.36295
 30
 0
 11
2.61358
 21
8.36594
  0
LINE
  8
Engraving
 62
   255
 39
0.008
  6
CONTINUOUS
 10
2.61358
 20
8.36594
 30
 0
 11
2.61531
 21
8.36925
  0
LINE
  8
Engraving
 62
   255
 39
0.008
  6
CONTINUOUS
 10
2.61531
 20
8.36925
 30
 0
 11
2.61654
 21
8.37280
  0
LINE
  8
Engraving
 62
   255
 39
0.008
  6
CONTINUOUS
 10
2.61654
 20
8.37280
 30
 0
 11
2.61732
 21
8.37654
  0
LINE
  8
Engraving
 62
   255
 39
0.008
  6
CONTINUOUS
 10
2.61732
 20
8.37654
 30
 0
 11
2.61760
 21
8.38035
  0
LINE
  8
Engraving
 62
   255
 39
0.008
  6
CONTINUOUS
 10
2.61760
 20
8.38035
 30
 0
 11
2.61760
 21
8.38035
  0
LINE
  8
Engraving
 62
   255
 39
0.008
  6
CONTINUOUS
 10
2.64772
 20
8.35476
 30
 0
 11
2.67961
 21
8.47287
  0
LINE
  8
Engraving
 62
   255
 39
0.008
  6
CONTINUOUS
 10
2.67961
 20
8.47287
 30
 0
 11
2.71150
 21
8.35476
  0
LINE
  8
Engraving
 62
   255
 39
0.008
  6
CONTINUOUS
 10
2.65835
 20
8.39020
 30
 0
 11
2.70087
 21
8.39020
  0
LINE
  8
Engraving
 62
   255
 39
0.008
  6
CONTINUOUS
 10
2.74161
 20
8.47287
 30
 0
 11
2.76551
 21
8.39906
  0
LINE
  8
Engraving
 62
   255
 39
0.008
  6
CONTINUOUS
 10
2.76551
 20
8.39906
 30
 0
 11
2.76551
 21
8.35476
  0
LINE
  8
Engraving
 62
   255
 39
0.008
  6
CONTINUOUS
 10
2.76551
 20
8.35476
 30
 0
 11
2.76551
 21
8.39906
  0
LINE
  8
Engraving
 62
   255
 39
0.008
  6
CONTINUOUS
 10
2.76551
 20
8.39906
 30
 0
 11
2.78945
 21
8.47287
  0
LINE
  8
Engraving
 62
   255
 39
0.008
  6
CONTINUOUS
 10
2.55331
 20
7.82654
 30
 0
 11
2.65173
 21
7.82654
  0
LINE
  8
Engraving
 62
   255
 39
0.008
  6
CONTINUOUS
 10
2.60252
 20
7.87575
 30
 0
 11
2.60252
 21
7.77732
  0
LINE
  8
Engraving
 62
   255
 39
0.008
  6
CONTINUOUS
 10
2.35646
 20
7.40031
 30
 0
 11
2.49421
 21
7.63898
  0
LINE
  8
Engraving
 62
   255
 39
0.008
  6
CONTINUOUS
 10
2.49421
 20
7.63898
 30
 0
 11
2.49425
 21
7.63898
  0
LINE
  8
Engraving
 62
   255
 39
0.008
  6
CONTINUOUS
 10
2.84858
 20
7.40031
 30
 0
 11
2.71079
 21
7.63898
  0
LINE
  8
Engraving
 62
   255
 39
0.008
  6
CONTINUOUS
 10
2.71079
 20
7.63898
 30
 0
 11
2.71079
 21
7.63898
  0
LINE
  8
Engraving
 62
   255
 39
0.008
  6
CONTINUOUS
 10
2.79004
 20
7.71823
 30
 0
 11
2.79004
 21
7.71823
  0
LINE
  8
Engraving
 62
   255
 39
0.008
  6
CONTINUOUS
 10
2.79004
 20
7.71823
 30
 0
 11
3.02870
 21
7.58043
  0
LINE
  8
Engraving
 62
   255
 39
0.008
  6
CONTINUOUS
 10
3.09465
 20
7.82654
 30
 0
 11
2.81906
 21
7.82654
  0
LINE
  8
Engraving
 62
   255
 39
0.008
  6
CONTINUOUS
 10
2.81906
 20
7.82654
 30
 0
 11
2.81906
 21
7.82654
  0
LINE
  8
Engraving
 62
   255
 39
0.008
  6
CONTINUOUS
 10
2.79004
 20
7.93480
 30
 0
 11
2.79004
 21
7.93480
  0
LINE
  8
Engraving
 62
   255
 39
0.008
  6
CONTINUOUS
 10
2.79004
 20
7.93480
 30
 0
 11
3.02870
 21
8.07260
  0
LINE
  8
Engraving
 62
   255
 39
0.008
  6
CONTINUOUS
 10
2.84854
 20
8.25272
 30
 0
 11
2.71079
 21
8.01406
  0
LINE
  8
Engraving
 62
   255
 39
0.008
  6
CONTINUOUS
 10
2.71079
 20
8.01406
 30
 0
 11
2.71075
 21
8.01406
  0
LINE
  8
Engraving
 62
   255
 39
0.008
  6
CONTINUOUS
 10
2.60252
 20
8.04307
 30
 0
 11
2.60252
 21
8.04307
  0
LINE
  8
Engraving
 62
   255
 39
0.008
  6
CONTINUOUS
 10
2.60252
 20
8.04307
 30
 0
 11
2.60252
 21
8.31866
  0
LINE
  8
Engraving
 62
   255
 39
0.008
  6
CONTINUOUS
 10
2.35646
 20
8.25272
 30
 0
 11
2.49425
 21
8.01406
  0
LINE
  8
Engraving
 62
   255
 39
0.008
  6
CONTINUOUS
 10
2.49425
 20
8.01406
 30
 0
 11
2.49425
 21
8.01406
  0
LINE
  8
Engraving
 62
   255
 39
0.008
  6
CONTINUOUS
 10
2.41496
 20
7.93476
 30
 0
 11
2.41496
 21
7.93480
  0
LINE
  8
Engraving
 62
   255
 39
0.008
  6
CONTINUOUS
 10
2.41496
 20
7.93480
 30
 0
 11
2.17630
 21
8.07256
  0
LINE
  8
Engraving
 62
   255
 39
0.008
  6
CONTINUOUS
 10
2.11039
 20
7.82654
 30
 0
 11
2.38598
 21
7.82654
  0
LINE
  8
Engraving
 62
   255
 39
0.008
  6
CONTINUOUS
 10
2.38598
 20
7.82654
 30
 0
 11
2.38598
 21
7.82654
  0
LINE
  8
Engraving
 62
   255
 39
0.008
  6
CONTINUOUS
 10
2.41496
 20
7.71827
 30
 0
 11
2.41496
 21
7.71827
  0
LINE
  8
Engraving
 62
   255
 39
0.008
  6
CONTINUOUS
 10
2.41496
 20
7.71827
 30
 0
 11
2.17630
 21
7.58047
  0
LINE
  8
Engraving
 62
   255
 39
0.008
  6
CONTINUOUS
 10
0.72618
 20
8.41382
 30
 0
 11
0.75012
 21
8.41382
  0
LINE
  8
Engraving
 62
   255
 39
0.008
  6
CONTINUOUS
 10
0.75012
 20
8.41382
 30
 0
 11
0.75406
 21
8.41413
  0
LINE
  8
Engraving
 62
   255
 39
0.008
  6
CONTINUOUS
 10
0.75406
 20
8.41413
 30
 0
 11
0.75795
 21
8.41512
  0
LINE
  8
Engraving
 62
   255
 39
0.008
  6
CONTINUOUS
 10
0.75795
 20
8.41512
 30
 0
 11
0.76161
 21
8.41673
  0
LINE
  8
Engraving
 62
   255
 39
0.008
  6
CONTINUOUS
 10
0.76161
 20
8.41673
 30
 0
 11
0.76504
 21
8.41894
  0
LINE
  8
Engraving
 62
   255
 39
0.008
  6
CONTINUOUS
 10
0.76504
 20
8.41894
 30
 0
 11
0.76819
 21
8.42169
  0
LINE
  8
Engraving
 62
   255
 39
0.008
  6
CONTINUOUS
 10
0.76819
 20
8.42169
 30
 0
 11
0.77087
 21
8.42492
  0
LINE
  8
Engraving
 62
   255
 39
0.008
  6
CONTINUOUS
 10
0.77087
 20
8.42492
 30
 0
 11
0.77315
 21
8.42858
  0
LINE
  8
Engraving
 62
   255
 39
0.008
  6
CONTINUOUS
 10
0.77315
 20
8.42858
 30
 0
 11
0.77484
 21
8.43256
  0
LINE
  8
Engraving
 62
   255
 39
0.008
  6
CONTINUOUS
 10
0.77484
 20
8.43256
 30
 0
 11
0.77602
 21
8.43677
  0
LINE
  8
Engraving
 62
   255
 39
0.008
  6
CONTINUOUS
 10
0.77602
 20
8.43677
 30
 0
 11
0.77661
 21
8.44114
  0
LINE
  8
Engraving
 62
   255
 39
0.008
  6
CONTINUOUS
 10
0.77661
 20
8.44114
 30
 0
 11
0.77661
 21
8.44555
  0
LINE
  8
Engraving
 62
   255
 39
0.008
  6
CONTINUOUS
 10
0.77661
 20
8.44555
 30
 0
 11
0.77602
 21
8.44992
  0
LINE
  8
Engraving
 62
   255
 39
0.008
  6
CONTINUOUS
 10
0.77602
 20
8.44992
 30
 0
 11
0.77484
 21
8.45413
  0
LINE
  8
Engraving
 62
   255
 39
0.008
  6
CONTINUOUS
 10
0.77484
 20
8.45413
 30
 0
 11
0.77315
 21
8.45811
  0
LINE
  8
Engraving
 62
   255
 39
0.008
  6
CONTINUOUS
 10
0.77315
 20
8.45811
 30
 0
 11
0.77087
 21
8.46177
  0
LINE
  8
Engraving
 62
   255
 39
0.008
  6
CONTINUOUS
 10
0.77087
 20
8.46177
 30
 0
 11
0.76819
 21
8.46500
  0
LINE
  8
Engraving
 62
   255
 39
0.008
  6
CONTINUOUS
 10
0.76819
 20
8.46500
 30
 0
 11
0.76504
 21
8.46776
  0
LINE
  8
Engraving
 62
   255
 39
0.008
  6
CONTINUOUS
 10
0.76504
 20
8.46776
 30
 0
 11
0.76161
 21
8.46996
  0
LINE
  8
Engraving
 62
   255
 39
0.008
  6
CONTINUOUS
 10
0.76161
 20
8.46996
 30
 0
 11
0.75795
 21
8.47157
  0
LINE
  8
Engraving
 62
   255
 39
0.008
  6
CONTINUOUS
 10
0.75795
 20
8.47157
 30
 0
 11
0.75406
 21
8.47256
  0
LINE
  8
Engraving
 62
   255
 39
0.008
  6
CONTINUOUS
 10
0.75406
 20
8.47256
 30
 0
 11
0.75012
 21
8.47287
  0
LINE
  8
Engraving
 62
   255
 39
0.008
  6
CONTINUOUS
 10
0.75012
 20
8.47287
 30
 0
 11
0.75012
 21
8.47287
  0
LINE
  8
Engraving
 62
   255
 39
0.008
  6
CONTINUOUS
 10
0.75012
 20
8.47287
 30
 0
 11
0.72618
 21
8.47287
  0
LINE
  8
Engraving
 62
   255
 39
0.008
  6
CONTINUOUS
 10
0.72618
 20
8.47287
 30
 0
 11
0.72618
 21
8.35476
  0
LINE
  8
Engraving
 62
   255
 39
0.008
  6
CONTINUOUS
 10
0.80681
 20
8.47287
 30
 0
 11
0.80681
 21
8.35476
  0
LINE
  8
Engraving
 62
   255
 39
0.008
  6
CONTINUOUS
 10
0.83693
 20
8.47287
 30
 0
 11
0.88476
 21
8.47287
  0
LINE
  8
Engraving
 62
   255
 39
0.008
  6
CONTINUOUS
 10
0.88476
 20
8.47287
 30
 0
 11
0.86083
 21
8.47287
  0
LINE
  8
Engraving
 62
   255
 39
0.008
  6
CONTINUOUS
 10
0.86083
 20
8.47287
 30
 0
 11
0.86083
 21
8.35476
  0
LINE
  8
Engraving
 62
   255
 39
0.008
  6
CONTINUOUS
 10
0.96094
 20
8.44728
 30
 0
 11
0.96067
 21
8.45110
  0
LINE
  8
Engraving
 62
   255
 39
0.008
  6
CONTINUOUS
 10
0.96067
 20
8.45110
 30
 0
 11
0.95992
 21
8.45484
  0
LINE
  8
Engraving
 62
   255
 39
0.008
  6
CONTINUOUS
 10
0.95992
 20
8.45484
 30
 0
 11
0.95866
 21
8.45839
  0
LINE
  8
Engraving
 62
   255
 39
0.008
  6
CONTINUOUS
 10
0.95866
 20
8.45839
 30
 0
 11
0.95693
 21
8.46169
  0
LINE
  8
Engraving
 62
   255
 39
0.008
  6
CONTINUOUS
 10
0.95693
 20
8.46169
 30
 0
 11
0.95476
 21
8.46469
  0
LINE
  8
Engraving
 62
   255
 39
0.008
  6
CONTINUOUS
 10
0.95476
 20
8.46469
 30
 0
 11
0.95224
 21
8.46728
  0
LINE
  8
Engraving
 62
   255
 39
0.008
  6
CONTINUOUS
 10
0.95224
 20
8.46728
 30
 0
 11
0.94941
 21
8.46945
  0
LINE
  8
Engraving
 62
   255
 39
0.008
  6
CONTINUOUS
 10
0.94941
 20
8.46945
 30
 0
 11
0.94630
 21
8.47110
  0
LINE
  8
Engraving
 62
   255
 39
0.008
  6
CONTINUOUS
 10
0.94630
 20
8.47110
 30
 0
 11
0.94303
 21
8.47224
  0
LINE
  8
Engraving
 62
   255
 39
0.008
  6
CONTINUOUS
 10
0.94303
 20
8.47224
 30
 0
 11
0.93965
 21
8.47280
  0
LINE
  8
Engraving
 62
   255
 39
0.008
  6
CONTINUOUS
 10
0.93965
 20
8.47280
 30
 0
 11
0.93618
 21
8.47280
  0
LINE
  8
Engraving
 62
   255
 39
0.008
  6
CONTINUOUS
 10
0.93618
 20
8.47280
 30
 0
 11
0.93276
 21
8.47224
  0
LINE
  8
Engraving
 62
   255
 39
0.008
  6
CONTINUOUS
 10
0.93276
 20
8.47224
 30
 0
 11
0.92949
 21
8.47110
  0
LINE
  8
Engraving
 62
   255
 39
0.008
  6
CONTINUOUS
 10
0.92949
 20
8.47110
 30
 0
 11
0.92638
 21
8.46945
  0
LINE
  8
Engraving
 62
   255
 39
0.008
  6
CONTINUOUS
 10
0.92638
 20
8.46945
 30
 0
 11
0.92354
 21
8.46728
  0
LINE
  8
Engraving
 62
   255
 39
0.008
  6
CONTINUOUS
 10
0.92354
 20
8.46728
 30
 0
 11
0.92102
 21
8.46469
  0
LINE
  8
Engraving
 62
   255
 39
0.008
  6
CONTINUOUS
 10
0.92102
 20
8.46469
 30
 0
 11
0.91886
 21
8.46169
  0
LINE
  8
Engraving
 62
   255
 39
0.008
  6
CONTINUOUS
 10
0.91886
 20
8.46169
 30
 0
 11
0.91713
 21
8.45839
  0
LINE
  8
Engraving
 62
   255
 39
0.008
  6
CONTINUOUS
 10
0.91713
 20
8.45839
 30
 0
 11
0.91591
 21
8.45484
  0
LINE
  8
Engraving
 62
   255
 39
0.008
  6
CONTINUOUS
 10
0.91591
 20
8.45484
 30
 0
 11
0.91512
 21
8.45110
  0
LINE
  8
Engraving
 62
   255
 39
0.008
  6
CONTINUOUS
 10
0.91512
 20
8.45110
 30
 0
 11
0.91488
 21
8.44728
  0
LINE
  8
Engraving
 62
   255
 39
0.008
  6
CONTINUOUS
 10
0.91488
 20
8.44728
 30
 0
 11
0.91488
 21
8.44728
  0
LINE
  8
Engraving
 62
   255
 39
0.008
  6
CONTINUOUS
 10
0.91488
 20
8.44728
 30
 0
 11
0.91488
 21
8.38035
  0
LINE
  8
Engraving
 62
   255
 39
0.008
  6
CONTINUOUS
 10
0.91488
 20
8.38035
 30
 0
 11
0.91512
 21
8.37654
  0
LINE
  8
Engraving
 62
   255
 39
0.008
  6
CONTINUOUS
 10
0.91512
 20
8.37654
 30
 0
 11
0.91591
 21
8.37280
  0
LINE
  8
Engraving
 62
   255
 39
0.008
  6
CONTINUOUS
 10
0.91591
 20
8.37280
 30
 0
 11
0.91713
 21
8.36925
  0
LINE
  8
Engraving
 62
   255
 39
0.008
  6
CONTINUOUS
 10
0.91713
 20
8.36925
 30
 0
 11
0.91886
 21
8.36594
  0
LINE
  8
Engraving
 62
   255
 39
0.008
  6
CONTINUOUS
 10
0.91886
 20
8.36594
 30
 0
 11
0.92102
 21
8.36295
  0
LINE
  8
Engraving
 62
   255
 39
0.008
  6
CONTINUOUS
 10
0.92102
 20
8.36295
 30
 0
 11
0.92354
 21
8.36035
  0
LINE
  8
Engraving
 62
   255
 39
0.008
  6
CONTINUOUS
 10
0.92354
 20
8.36035
 30
 0
 11
0.92638
 21
8.35819
  0
LINE
  8
Engraving
 62
   255
 39
0.008
  6
CONTINUOUS
 10
0.92638
 20
8.35819
 30
 0
 11
0.92949
 21
8.35654
  0
LINE
  8
Engraving
 62
   255
 39
0.008
  6
CONTINUOUS
 10
0.92949
 20
8.35654
 30
 0
 11
0.93276
 21
8.35539
  0
LINE
  8
Engraving
 62
   255
 39
0.008
  6
CONTINUOUS
 10
0.93276
 20
8.35539
 30
 0
 11
0.93618
 21
8.35484
  0
LINE
  8
Engraving
 62
   255
 39
0.008
  6
CONTINUOUS
 10
0.93618
 20
8.35484
 30
 0
 11
0.93965
 21
8.35484
  0
LINE
  8
Engraving
 62
   255
 39
0.008
  6
CONTINUOUS
 10
0.93965
 20
8.35484
 30
 0
 11
0.94303
 21
8.35539
  0
LINE
  8
Engraving
 62
   255
 39
0.008
  6
CONTINUOUS
 10
0.94303
 20
8.35539
 30
 0
 11
0.94630
 21
8.35654
  0
LINE
  8
Engraving
 62
   255
 39
0.008
  6
CONTINUOUS
 10
0.94630
 20
8.35654
 30
 0
 11
0.94941
 21
8.35819
  0
LINE
  8
Engraving
 62
   255
 39
0.008
  6
CONTINUOUS
 10
0.94941
 20
8.35819
 30
 0
 11
0.95224
 21
8.36035
  0
LINE
  8
Engraving
 62
   255
 39
0.008
  6
CONTINUOUS
 10
0.95224
 20
8.36035
 30
 0
 11
0.95476
 21
8.36295
  0
LINE
  8
Engraving
 62
   255
 39
0.008
  6
CONTINUOUS
 10
0.95476
 20
8.36295
 30
 0
 11
0.95693
 21
8.36594
  0
LINE
  8
Engraving
 62
   255
 39
0.008
  6
CONTINUOUS
 10
0.95693
 20
8.36594
 30
 0
 11
0.95866
 21
8.36925
  0
LINE
  8
Engraving
 62
   255
 39
0.008
  6
CONTINUOUS
 10
0.95866
 20
8.36925
 30
 0
 11
0.95992
 21
8.37280
  0
LINE
  8
Engraving
 62
   255
 39
0.008
  6
CONTINUOUS
 10
0.95992
 20
8.37280
 30
 0
 11
0.96067
 21
8.37654
  0
LINE
  8
Engraving
 62
   255
 39
0.008
  6
CONTINUOUS
 10
0.96067
 20
8.37654
 30
 0
 11
0.96094
 21
8.38035
  0
LINE
  8
Engraving
 62
   255
 39
0.008
  6
CONTINUOUS
 10
0.96094
 20
8.38035
 30
 0
 11
0.96094
 21
8.38035
  0
LINE
  8
Engraving
 62
   255
 39
0.008
  6
CONTINUOUS
 10
0.99106
 20
8.47287
 30
 0
 11
0.99106
 21
8.35476
  0
LINE
  8
Engraving
 62
   255
 39
0.008
  6
CONTINUOUS
 10
0.99106
 20
8.41382
 30
 0
 11
1.03890
 21
8.41382
  0
LINE
  8
Engraving
 62
   255
 39
0.008
  6
CONTINUOUS
 10
1.03890
 20
8.35476
 30
 0
 11
1.03890
 21
8.47287
  0
LINE
  8
Engraving
 62
   255
 39
0.008
  6
CONTINUOUS
 10
0.83331
 20
7.82654
 30
 0
 11
0.93173
 21
7.82654
  0
LINE
  8
Engraving
 62
   255
 39
0.008
  6
CONTINUOUS
 10
0.88252
 20
7.87575
 30
 0
 11
0.88252
 21
7.77732
  0
LINE
  8
Engraving
 62
   255
 39
0.008
  6
CONTINUOUS
 10
0.63646
 20
7.40031
 30
 0
 11
0.77421
 21
7.63898
  0
LINE
  8
Engraving
 62
   255
 39
0.008
  6
CONTINUOUS
 10
0.77421
 20
7.63898
 30
 0
 11
0.77425
 21
7.63898
  0
LINE
  8
Engraving
 62
   255
 39
0.008
  6
CONTINUOUS
 10
1.12858
 20
7.40031
 30
 0
 11
0.99079
 21
7.63898
  0
LINE
  8
Engraving
 62
   255
 39
0.008
  6
CONTINUOUS
 10
0.99079
 20
7.63898
 30
 0
 11
0.99079
 21
7.63898
  0
LINE
  8
Engraving
 62
   255
 39
0.008
  6
CONTINUOUS
 10
1.07004
 20
7.71823
 30
 0
 11
1.07004
 21
7.71823
  0
LINE
  8
Engraving
 62
   255
 39
0.008
  6
CONTINUOUS
 10
1.07004
 20
7.71823
 30
 0
 11
1.30870
 21
7.58043
  0
LINE
  8
Engraving
 62
   255
 39
0.008
  6
CONTINUOUS
 10
1.37465
 20
7.82654
 30
 0
 11
1.09906
 21
7.82654
  0
LINE
  8
Engraving
 62
   255
 39
0.008
  6
CONTINUOUS
 10
1.09906
 20
7.82654
 30
 0
 11
1.09906
 21
7.82654
  0
LINE
  8
Engraving
 62
   255
 39
0.008
  6
CONTINUOUS
 10
1.07004
 20
7.93480
 30
 0
 11
1.07004
 21
7.93480
  0
LINE
  8
Engraving
 62
   255
 39
0.008
  6
CONTINUOUS
 10
1.07004
 20
7.93480
 30
 0
 11
1.30870
 21
8.07260
  0
LINE
  8
Engraving
 62
   255
 39
0.008
  6
CONTINUOUS
 10
1.12854
 20
8.25272
 30
 0
 11
0.99079
 21
8.01406
  0
LINE
  8
Engraving
 62
   255
 39
0.008
  6
CONTINUOUS
 10
0.99079
 20
8.01406
 30
 0
 11
0.99075
 21
8.01406
  0
LINE
  8
Engraving
 62
   255
 39
0.008
  6
CONTINUOUS
 10
0.88252
 20
8.04307
 30
 0
 11
0.88252
 21
8.04307
  0
LINE
  8
Engraving
 62
   255
 39
0.008
  6
CONTINUOUS
 10
0.88252
 20
8.04307
 30
 0
 11
0.88252
 21
8.31866
  0
LINE
  8
Engraving
 62
   255
 39
0.008
  6
CONTINUOUS
 10
0.63646
 20
8.25272
 30
 0
 11
0.77425
 21
8.01406
  0
LINE
  8
Engraving
 62
   255
 39
0.008
  6
CONTINUOUS
 10
0.77425
 20
8.01406
 30
 0
 11
0.77425
 21
8.01406
  0
LINE
  8
Engraving
 62
   255
 39
0.008
  6
CONTINUOUS
 10
0.69496
 20
7.93476
 30
 0
 11
0.69496
 21
7.93480
  0
LINE
  8
Engraving
 62
   255
 39
0.008
  6
CONTINUOUS
 10
0.69496
 20
7.93480
 30
 0
 11
0.45630
 21
8.07256
  0
LINE
  8
Engraving
 62
   255
 39
0.008
  6
CONTINUOUS
 10
0.39039
 20
7.82654
 30
 0
 11
0.66598
 21
7.82654
  0
LINE
  8
Engraving
 62
   255
 39
0.008
  6
CONTINUOUS
 10
0.66598
 20
7.82654
 30
 0
 11
0.66598
 21
7.82654
  0
LINE
  8
Engraving
 62
   255
 39
0.008
  6
CONTINUOUS
 10
0.69496
 20
7.71827
 30
 0
 11
0.69496
 21
7.71827
  0
LINE
  8
Engraving
 62
   255
 39
0.008
  6
CONTINUOUS
 10
0.69496
 20
7.71827
 30
 0
 11
0.45630
 21
7.58047
  0
LINE
  8
Engraving
 62
   255
 39
0.008
  6
CONTINUOUS
 10
2.20169
 20
7.10358
 30
 0
 11
2.22563
 21
7.10358
  0
LINE
  8
Engraving
 62
   255
 39
0.008
  6
CONTINUOUS
 10
2.22563
 20
7.10358
 30
 0
 11
2.22957
 21
7.10390
  0
LINE
  8
Engraving
 62
   255
 39
0.008
  6
CONTINUOUS
 10
2.22957
 20
7.10390
 30
 0
 11
2.23346
 21
7.10488
  0
LINE
  8
Engraving
 62
   255
 39
0.008
  6
CONTINUOUS
 10
2.23346
 20
7.10488
 30
 0
 11
2.23713
 21
7.10650
  0
LINE
  8
Engraving
 62
   255
 39
0.008
  6
CONTINUOUS
 10
2.23713
 20
7.10650
 30
 0
 11
2.24055
 21
7.10870
  0
LINE
  8
Engraving
 62
   255
 39
0.008
  6
CONTINUOUS
 10
2.24055
 20
7.10870
 30
 0
 11
2.24370
 21
7.11146
  0
LINE
  8
Engraving
 62
   255
 39
0.008
  6
CONTINUOUS
 10
2.24370
 20
7.11146
 30
 0
 11
2.24638
 21
7.11469
  0
LINE
  8
Engraving
 62
   255
 39
0.008
  6
CONTINUOUS
 10
2.24638
 20
7.11469
 30
 0
 11
2.24866
 21
7.11835
  0
LINE
  8
Engraving
 62
   255
 39
0.008
  6
CONTINUOUS
 10
2.24866
 20
7.11835
 30
 0
 11
2.25035
 21
7.12232
  0
LINE
  8
Engraving
 62
   255
 39
0.008
  6
CONTINUOUS
 10
2.25035
 20
7.12232
 30
 0
 11
2.25154
 21
7.12654
  0
LINE
  8
Engraving
 62
   255
 39
0.008
  6
CONTINUOUS
 10
2.25154
 20
7.12654
 30
 0
 11
2.25213
 21
7.13091
  0
LINE
  8
Engraving
 62
   255
 39
0.008
  6
CONTINUOUS
 10
2.25213
 20
7.13091
 30
 0
 11
2.25213
 21
7.13531
  0
LINE
  8
Engraving
 62
   255
 39
0.008
  6
CONTINUOUS
 10
2.25213
 20
7.13531
 30
 0
 11
2.25154
 21
7.13969
  0
LINE
  8
Engraving
 62
   255
 39
0.008
  6
CONTINUOUS
 10
2.25154
 20
7.13969
 30
 0
 11
2.25035
 21
7.14390
  0
LINE
  8
Engraving
 62
   255
 39
0.008
  6
CONTINUOUS
 10
2.25035
 20
7.14390
 30
 0
 11
2.24866
 21
7.14787
  0
LINE
  8
Engraving
 62
   255
 39
0.008
  6
CONTINUOUS
 10
2.24866
 20
7.14787
 30
 0
 11
2.24638
 21
7.15154
  0
LINE
  8
Engraving
 62
   255
 39
0.008
  6
CONTINUOUS
 10
2.24638
 20
7.15154
 30
 0
 11
2.24370
 21
7.15476
  0
LINE
  8
Engraving
 62
   255
 39
0.008
  6
CONTINUOUS
 10
2.24370
 20
7.15476
 30
 0
 11
2.24055
 21
7.15752
  0
LINE
  8
Engraving
 62
   255
 39
0.008
  6
CONTINUOUS
 10
2.24055
 20
7.15752
 30
 0
 11
2.23713
 21
7.15972
  0
LINE
  8
Engraving
 62
   255
 39
0.008
  6
CONTINUOUS
 10
2.23713
 20
7.15972
 30
 0
 11
2.23346
 21
7.16134
  0
LINE
  8
Engraving
 62
   255
 39
0.008
  6
CONTINUOUS
 10
2.23346
 20
7.16134
 30
 0
 11
2.22957
 21
7.16232
  0
LINE
  8
Engraving
 62
   255
 39
0.008
  6
CONTINUOUS
 10
2.22957
 20
7.16232
 30
 0
 11
2.22563
 21
7.16264
  0
LINE
  8
Engraving
 62
   255
 39
0.008
  6
CONTINUOUS
 10
2.22563
 20
7.16264
 30
 0
 11
2.22563
 21
7.16264
  0
LINE
  8
Engraving
 62
   255
 39
0.008
  6
CONTINUOUS
 10
2.22563
 20
7.16264
 30
 0
 11
2.20169
 21
7.16264
  0
LINE
  8
Engraving
 62
   255
 39
0.008
  6
CONTINUOUS
 10
2.20169
 20
7.16264
 30
 0
 11
2.20169
 21
7.04453
  0
LINE
  8
Engraving
 62
   255
 39
0.008
  6
CONTINUOUS
 10
2.28232
 20
7.16264
 30
 0
 11
2.28232
 21
7.04453
  0
LINE
  8
Engraving
 62
   255
 39
0.008
  6
CONTINUOUS
 10
2.31244
 20
7.16264
 30
 0
 11
2.36028
 21
7.16264
  0
LINE
  8
Engraving
 62
   255
 39
0.008
  6
CONTINUOUS
 10
2.36028
 20
7.16264
 30
 0
 11
2.33634
 21
7.16264
  0
LINE
  8
Engraving
 62
   255
 39
0.008
  6
CONTINUOUS
 10
2.33634
 20
7.16264
 30
 0
 11
2.33634
 21
7.04453
  0
LINE
  8
Engraving
 62
   255
 39
0.008
  6
CONTINUOUS
 10
2.43646
 20
7.13705
 30
 0
 11
2.43618
 21
7.14087
  0
LINE
  8
Engraving
 62
   255
 39
0.008
  6
CONTINUOUS
 10
2.43618
 20
7.14087
 30
 0
 11
2.43543
 21
7.14461
  0
LINE
  8
Engraving
 62
   255
 39
0.008
  6
CONTINUOUS
 10
2.43543
 20
7.14461
 30
 0
 11
2.43417
 21
7.14815
  0
LINE
  8
Engraving
 62
   255
 39
0.008
  6
CONTINUOUS
 10
2.43417
 20
7.14815
 30
 0
 11
2.43244
 21
7.15146
  0
LINE
  8
Engraving
 62
   255
 39
0.008
  6
CONTINUOUS
 10
2.43244
 20
7.15146
 30
 0
 11
2.43028
 21
7.15445
  0
LINE
  8
Engraving
 62
   255
 39
0.008
  6
CONTINUOUS
 10
2.43028
 20
7.15445
 30
 0
 11
2.42776
 21
7.15705
  0
LINE
  8
Engraving
 62
   255
 39
0.008
  6
CONTINUOUS
 10
2.42776
 20
7.15705
 30
 0
 11
2.42492
 21
7.15921
  0
LINE
  8
Engraving
 62
   255
 39
0.008
  6
CONTINUOUS
 10
2.42492
 20
7.15921
 30
 0
 11
2.42181
 21
7.16087
  0
LINE
  8
Engraving
 62
   255
 39
0.008
  6
CONTINUOUS
 10
2.42181
 20
7.16087
 30
 0
 11
2.41854
 21
7.16201
  0
LINE
  8
Engraving
 62
   255
 39
0.008
  6
CONTINUOUS
 10
2.41854
 20
7.16201
 30
 0
 11
2.41516
 21
7.16256
  0
LINE
  8
Engraving
 62
   255
 39
0.008
  6
CONTINUOUS
 10
2.41516
 20
7.16256
 30
 0
 11
2.41169
 21
7.16256
  0
LINE
  8
Engraving
 62
   255
 39
0.008
  6
CONTINUOUS
 10
2.41169
 20
7.16256
 30
 0
 11
2.40827
 21
7.16201
  0
LINE
  8
Engraving
 62
   255
 39
0.008
  6
CONTINUOUS
 10
2.40827
 20
7.16201
 30
 0
 11
2.40500
 21
7.16087
  0
LINE
  8
Engraving
 62
   255
 39
0.008
  6
CONTINUOUS
 10
2.40500
 20
7.16087
 30
 0
 11
2.40189
 21
7.15921
  0
LINE
  8
Engraving
 62
   255
 39
0.008
  6
CONTINUOUS
 10
2.40189
 20
7.15921
 30
 0
 11
2.39906
 21
7.15705
  0
LINE
  8
Engraving
 62
   255
 39
0.008
  6
CONTINUOUS
 10
2.39906
 20
7.15705
 30
 0
 11
2.39654
 21
7.15445
  0
LINE
  8
Engraving
 62
   255
 39
0.008
  6
CONTINUOUS
 10
2.39654
 20
7.15445
 30
 0
 11
2.39437
 21
7.15146
  0
LINE
  8
Engraving
 62
   255
 39
0.008
  6
CONTINUOUS
 10
2.39437
 20
7.15146
 30
 0
 11
2.39264
 21
7.14815
  0
LINE
  8
Engraving
 62
   255
 39
0.008
  6
CONTINUOUS
 10
2.39264
 20
7.14815
 30
 0
 11
2.39142
 21
7.14461
  0
LINE
  8
Engraving
 62
   255
 39
0.008
  6
CONTINUOUS
 10
2.39142
 20
7.14461
 30
 0
 11
2.39063
 21
7.14087
  0
LINE
  8
Engraving
 62
   255
 39
0.008
  6
CONTINUOUS
 10
2.39063
 20
7.14087
 30
 0
 11
2.39039
 21
7.13705
  0
LINE
  8
Engraving
 62
   255
 39
0.008
  6
CONTINUOUS
 10
2.39039
 20
7.13705
 30
 0
 11
2.39039
 21
7.13705
  0
LINE
  8
Engraving
 62
   255
 39
0.008
  6
CONTINUOUS
 10
2.39039
 20
7.13705
 30
 0
 11
2.39039
 21
7.07012
  0
LINE
  8
Engraving
 62
   255
 39
0.008
  6
CONTINUOUS
 10
2.39039
 20
7.07012
 30
 0
 11
2.39063
 21
7.06630
  0
LINE
  8
Engraving
 62
   255
 39
0.008
  6
CONTINUOUS
 10
2.39063
 20
7.06630
 30
 0
 11
2.39142
 21
7.06256
  0
LINE
  8
Engraving
 62
   255
 39
0.008
  6
CONTINUOUS
 10
2.39142
 20
7.06256
 30
 0
 11
2.39264
 21
7.05902
  0
LINE
  8
Engraving
 62
   255
 39
0.008
  6
CONTINUOUS
 10
2.39264
 20
7.05902
 30
 0
 11
2.39437
 21
7.05571
  0
LINE
  8
Engraving
 62
   255
 39
0.008
  6
CONTINUOUS
 10
2.39437
 20
7.05571
 30
 0
 11
2.39654
 21
7.05272
  0
LINE
  8
Engraving
 62
   255
 39
0.008
  6
CONTINUOUS
 10
2.39654
 20
7.05272
 30
 0
 11
2.39906
 21
7.05012
  0
LINE
  8
Engraving
 62
   255
 39
0.008
  6
CONTINUOUS
 10
2.39906
 20
7.05012
 30
 0
 11
2.40189
 21
7.04795
  0
LINE
  8
Engraving
 62
   255
 39
0.008
  6
CONTINUOUS
 10
2.40189
 20
7.04795
 30
 0
 11
2.40500
 21
7.04630
  0
LINE
  8
Engraving
 62
   255
 39
0.008
  6
CONTINUOUS
 10
2.40500
 20
7.04630
 30
 0
 11
2.40827
 21
7.04516
  0
LINE
  8
Engraving
 62
   255
 39
0.008
  6
CONTINUOUS
 10
2.40827
 20
7.04516
 30
 0
 11
2.41169
 21
7.04461
  0
LINE
  8
Engraving
 62
   255
 39
0.008
  6
CONTINUOUS
 10
2.41169
 20
7.04461
 30
 0
 11
2.41516
 21
7.04461
  0
LINE
  8
Engraving
 62
   255
 39
0.008
  6
CONTINUOUS
 10
2.41516
 20
7.04461
 30
 0
 11
2.41854
 21
7.04516
  0
LINE
  8
Engraving
 62
   255
 39
0.008
  6
CONTINUOUS
 10
2.41854
 20
7.04516
 30
 0
 11
2.42181
 21
7.04630
  0
LINE
  8
Engraving
 62
   255
 39
0.008
  6
CONTINUOUS
 10
2.42181
 20
7.04630
 30
 0
 11
2.42492
 21
7.04795
  0
LINE
  8
Engraving
 62
   255
 39
0.008
  6
CONTINUOUS
 10
2.42492
 20
7.04795
 30
 0
 11
2.42776
 21
7.05012
  0
LINE
  8
Engraving
 62
   255
 39
0.008
  6
CONTINUOUS
 10
2.42776
 20
7.05012
 30
 0
 11
2.43028
 21
7.05272
  0
LINE
  8
Engraving
 62
   255
 39
0.008
  6
CONTINUOUS
 10
2.43028
 20
7.05272
 30
 0
 11
2.43244
 21
7.05571
  0
LINE
  8
Engraving
 62
   255
 39
0.008
  6
CONTINUOUS
 10
2.43244
 20
7.05571
 30
 0
 11
2.43417
 21
7.05902
  0
LINE
  8
Engraving
 62
   255
 39
0.008
  6
CONTINUOUS
 10
2.43417
 20
7.05902
 30
 0
 11
2.43543
 21
7.06256
  0
LINE
  8
Engraving
 62
   255
 39
0.008
  6
CONTINUOUS
 10
2.43543
 20
7.06256
 30
 0
 11
2.43618
 21
7.06630
  0
LINE
  8
Engraving
 62
   255
 39
0.008
  6
CONTINUOUS
 10
2.43618
 20
7.06630
 30
 0
 11
2.43646
 21
7.07012
  0
LINE
  8
Engraving
 62
   255
 39
0.008
  6
CONTINUOUS
 10
2.43646
 20
7.07012
 30
 0
 11
2.43646
 21
7.07012
  0
LINE
  8
Engraving
 62
   255
 39
0.008
  6
CONTINUOUS
 10
2.46657
 20
7.16264
 30
 0
 11
2.46657
 21
7.04453
  0
LINE
  8
Engraving
 62
   255
 39
0.008
  6
CONTINUOUS
 10
2.46657
 20
7.10358
 30
 0
 11
2.51441
 21
7.10358
  0
LINE
  8
Engraving
 62
   255
 39
0.008
  6
CONTINUOUS
 10
2.51441
 20
7.04453
 30
 0
 11
2.51441
 21
7.16264
  0
LINE
  8
Engraving
 62
   255
 39
0.008
  6
CONTINUOUS
 10
2.62957
 20
7.04453
 30
 0
 11
2.62957
 21
7.16264
  0
LINE
  8
Engraving
 62
   255
 39
0.008
  6
CONTINUOUS
 10
2.62957
 20
7.16264
 30
 0
 11
2.65083
 21
7.16264
  0
LINE
  8
Engraving
 62
   255
 39
0.008
  6
CONTINUOUS
 10
2.65083
 20
7.16264
 30
 0
 11
2.65469
 21
7.16236
  0
LINE
  8
Engraving
 62
   255
 39
0.008
  6
CONTINUOUS
 10
2.65469
 20
7.16236
 30
 0
 11
2.65846
 21
7.16142
  0
LINE
  8
Engraving
 62
   255
 39
0.008
  6
CONTINUOUS
 10
2.65846
 20
7.16142
 30
 0
 11
2.66213
 21
7.15988
  0
LINE
  8
Engraving
 62
   255
 39
0.008
  6
CONTINUOUS
 10
2.66213
 20
7.15988
 30
 0
 11
2.66547
 21
7.15780
  0
LINE
  8
Engraving
 62
   255
 39
0.008
  6
CONTINUOUS
 10
2.66547
 20
7.15780
 30
 0
 11
2.66858
 21
7.15516
  0
LINE
  8
Engraving
 62
   255
 39
0.008
  6
CONTINUOUS
 10
2.66858
 20
7.15516
 30
 0
 11
2.67126
 21
7.15209
  0
LINE
  8
Engraving
 62
   255
 39
0.008
  6
CONTINUOUS
 10
2.67126
 20
7.15209
 30
 0
 11
2.67354
 21
7.14854
  0
LINE
  8
Engraving
 62
   255
 39
0.008
  6
CONTINUOUS
 10
2.67354
 20
7.14854
 30
 0
 11
2.67531
 21
7.14472
  0
LINE
  8
Engraving
 62
   255
 39
0.008
  6
CONTINUOUS
 10
2.67531
 20
7.14472
 30
 0
 11
2.67654
 21
7.14063
  0
LINE
  8
Engraving
 62
   255
 39
0.008
  6
CONTINUOUS
 10
2.67654
 20
7.14063
 30
 0
 11
2.67724
 21
7.13642
  0
LINE
  8
Engraving
 62
   255
 39
0.008
  6
CONTINUOUS
 10
2.67724
 20
7.13642
 30
 0
 11
2.67740
 21
7.13311
  0
LINE
  8
Engraving
 62
   255
 39
0.008
  6
CONTINUOUS
 10
2.67740
 20
7.13311
 30
 0
 11
2.67740
 21
7.07406
  0
LINE
  8
Engraving
 62
   255
 39
0.008
  6
CONTINUOUS
 10
2.67740
 20
7.07406
 30
 0
 11
2.67713
 21
7.06976
  0
LINE
  8
Engraving
 62
   255
 39
0.008
  6
CONTINUOUS
 10
2.67713
 20
7.06976
 30
 0
 11
2.67630
 21
7.06555
  0
LINE
  8
Engraving
 62
   255
 39
0.008
  6
CONTINUOUS
 10
2.67630
 20
7.06555
 30
 0
 11
2.67492
 21
7.06150
  0
LINE
  8
Engraving
 62
   255
 39
0.008
  6
CONTINUOUS
 10
2.67492
 20
7.06150
 30
 0
 11
2.67303
 21
7.05776
  0
LINE
  8
Engraving
 62
   255
 39
0.008
  6
CONTINUOUS
 10
2.67303
 20
7.05776
 30
 0
 11
2.67067
 21
7.05433
  0
LINE
  8
Engraving
 62
   255
 39
0.008
  6
CONTINUOUS
 10
2.67067
 20
7.05433
 30
 0
 11
2.66791
 21
7.05134
  0
LINE
  8
Engraving
 62
   255
 39
0.008
  6
CONTINUOUS
 10
2.66791
 20
7.05134
 30
 0
 11
2.66472
 21
7.04882
  0
LINE
  8
Engraving
 62
   255
 39
0.008
  6
CONTINUOUS
 10
2.66472
 20
7.04882
 30
 0
 11
2.66126
 21
7.04685
  0
LINE
  8
Engraving
 62
   255
 39
0.008
  6
CONTINUOUS
 10
2.66126
 20
7.04685
 30
 0
 11
2.65760
 21
7.04547
  0
LINE
  8
Engraving
 62
   255
 39
0.008
  6
CONTINUOUS
 10
2.65760
 20
7.04547
 30
 0
 11
2.65378
 21
7.04469
  0
LINE
  8
Engraving
 62
   255
 39
0.008
  6
CONTINUOUS
 10
2.65378
 20
7.04469
 30
 0
 11
2.65083
 21
7.04453
  0
LINE
  8
Engraving
 62
   255
 39
0.008
  6
CONTINUOUS
 10
2.65083
 20
7.04453
 30
 0
 11
2.62957
 21
7.04453
  0
LINE
  8
Engraving
 62
   255
 39
0.008
  6
CONTINUOUS
 10
2.75535
 20
7.16264
 30
 0
 11
2.70752
 21
7.16264
  0
LINE
  8
Engraving
 62
   255
 39
0.008
  6
CONTINUOUS
 10
2.70752
 20
7.16264
 30
 0
 11
2.70752
 21
7.04453
  0
LINE
  8
Engraving
 62
   255
 39
0.008
  6
CONTINUOUS
 10
2.70752
 20
7.04453
 30
 0
 11
2.75535
 21
7.04453
  0
LINE
  8
Engraving
 62
   255
 39
0.008
  6
CONTINUOUS
 10
2.70752
 20
7.10358
 30
 0
 11
2.74736
 21
7.10358
  0
LINE
  8
Engraving
 62
   255
 39
0.008
  6
CONTINUOUS
 10
2.83154
 20
7.13705
 30
 0
 11
2.83126
 21
7.14087
  0
LINE
  8
Engraving
 62
   255
 39
0.008
  6
CONTINUOUS
 10
2.83126
 20
7.14087
 30
 0
 11
2.83051
 21
7.14461
  0
LINE
  8
Engraving
 62
   255
 39
0.008
  6
CONTINUOUS
 10
2.83051
 20
7.14461
 30
 0
 11
2.82925
 21
7.14815
  0
LINE
  8
Engraving
 62
   255
 39
0.008
  6
CONTINUOUS
 10
2.82925
 20
7.14815
 30
 0
 11
2.82752
 21
7.15146
  0
LINE
  8
Engraving
 62
   255
 39
0.008
  6
CONTINUOUS
 10
2.82752
 20
7.15146
 30
 0
 11
2.82535
 21
7.15445
  0
LINE
  8
Engraving
 62
   255
 39
0.008
  6
CONTINUOUS
 10
2.82535
 20
7.15445
 30
 0
 11
2.82283
 21
7.15705
  0
LINE
  8
Engraving
 62
   255
 39
0.008
  6
CONTINUOUS
 10
2.82283
 20
7.15705
 30
 0
 11
2.82000
 21
7.15921
  0
LINE
  8
Engraving
 62
   255
 39
0.008
  6
CONTINUOUS
 10
2.82000
 20
7.15921
 30
 0
 11
2.81689
 21
7.16087
  0
LINE
  8
Engraving
 62
   255
 39
0.008
  6
CONTINUOUS
 10
2.81689
 20
7.16087
 30
 0
 11
2.81362
 21
7.16201
  0
LINE
  8
Engraving
 62
   255
 39
0.008
  6
CONTINUOUS
 10
2.81362
 20
7.16201
 30
 0
 11
2.81024
 21
7.16256
  0
LINE
  8
Engraving
 62
   255
 39
0.008
  6
CONTINUOUS
 10
2.81024
 20
7.16256
 30
 0
 11
2.80677
 21
7.16256
  0
LINE
  8
Engraving
 62
   255
 39
0.008
  6
CONTINUOUS
 10
2.80677
 20
7.16256
 30
 0
 11
2.80335
 21
7.16201
  0
LINE
  8
Engraving
 62
   255
 39
0.008
  6
CONTINUOUS
 10
2.80335
 20
7.16201
 30
 0
 11
2.80008
 21
7.16087
  0
LINE
  8
Engraving
 62
   255
 39
0.008
  6
CONTINUOUS
 10
2.80008
 20
7.16087
 30
 0
 11
2.79697
 21
7.15921
  0
LINE
  8
Engraving
 62
   255
 39
0.008
  6
CONTINUOUS
 10
2.79697
 20
7.15921
 30
 0
 11
2.79413
 21
7.15705
  0
LINE
  8
Engraving
 62
   255
 39
0.008
  6
CONTINUOUS
 10
2.79413
 20
7.15705
 30
 0
 11
2.79161
 21
7.15445
  0
LINE
  8
Engraving
 62
   255
 39
0.008
  6
CONTINUOUS
 10
2.79161
 20
7.15445
 30
 0
 11
2.78945
 21
7.15146
  0
LINE
  8
Engraving
 62
   255
 39
0.008
  6
CONTINUOUS
 10
2.78945
 20
7.15146
 30
 0
 11
2.78772
 21
7.14815
  0
LINE
  8
Engraving
 62
   255
 39
0.008
  6
CONTINUOUS
 10
2.78772
 20
7.14815
 30
 0
 11
2.78650
 21
7.14461
  0
LINE
  8
Engraving
 62
   255
 39
0.008
  6
CONTINUOUS
 10
2.78650
 20
7.14461
 30
 0
 11
2.78571
 21
7.14087
  0
LINE
  8
Engraving
 62
   255
 39
0.008
  6
CONTINUOUS
 10
2.78571
 20
7.14087
 30
 0
 11
2.78547
 21
7.13705
  0
LINE
  8
Engraving
 62
   255
 39
0.008
  6
CONTINUOUS
 10
2.78547
 20
7.13705
 30
 0
 11
2.78547
 21
7.13705
  0
LINE
  8
Engraving
 62
   255
 39
0.008
  6
CONTINUOUS
 10
2.78547
 20
7.13705
 30
 0
 11
2.78547
 21
7.07012
  0
LINE
  8
Engraving
 62
   255
 39
0.008
  6
CONTINUOUS
 10
2.78547
 20
7.07012
 30
 0
 11
2.78571
 21
7.06630
  0
LINE
  8
Engraving
 62
   255
 39
0.008
  6
CONTINUOUS
 10
2.78571
 20
7.06630
 30
 0
 11
2.78650
 21
7.06256
  0
LINE
  8
Engraving
 62
   255
 39
0.008
  6
CONTINUOUS
 10
2.78650
 20
7.06256
 30
 0
 11
2.78772
 21
7.05902
  0
LINE
  8
Engraving
 62
   255
 39
0.008
  6
CONTINUOUS
 10
2.78772
 20
7.05902
 30
 0
 11
2.78945
 21
7.05571
  0
LINE
  8
Engraving
 62
   255
 39
0.008
  6
CONTINUOUS
 10
2.78945
 20
7.05571
 30
 0
 11
2.79161
 21
7.05272
  0
LINE
  8
Engraving
 62
   255
 39
0.008
  6
CONTINUOUS
 10
2.79161
 20
7.05272
 30
 0
 11
2.79413
 21
7.05012
  0
LINE
  8
Engraving
 62
   255
 39
0.008
  6
CONTINUOUS
 10
2.79413
 20
7.05012
 30
 0
 11
2.79697
 21
7.04795
  0
LINE
  8
Engraving
 62
   255
 39
0.008
  6
CONTINUOUS
 10
2.79697
 20
7.04795
 30
 0
 11
2.80008
 21
7.04630
  0
LINE
  8
Engraving
 62
   255
 39
0.008
  6
CONTINUOUS
 10
2.80008
 20
7.04630
 30
 0
 11
2.80335
 21
7.04516
  0
LINE
  8
Engraving
 62
   255
 39
0.008
  6
CONTINUOUS
 10
2.80335
 20
7.04516
 30
 0
 11
2.80677
 21
7.04461
  0
LINE
  8
Engraving
 62
   255
 39
0.008
  6
CONTINUOUS
 10
2.80677
 20
7.04461
 30
 0
 11
2.81024
 21
7.04461
  0
LINE
  8
Engraving
 62
   255
 39
0.008
  6
CONTINUOUS
 10
2.81024
 20
7.04461
 30
 0
 11
2.81362
 21
7.04516
  0
LINE
  8
Engraving
 62
   255
 39
0.008
  6
CONTINUOUS
 10
2.81362
 20
7.04516
 30
 0
 11
2.81689
 21
7.04630
  0
LINE
  8
Engraving
 62
   255
 39
0.008
  6
CONTINUOUS
 10
2.81689
 20
7.04630
 30
 0
 11
2.82000
 21
7.04795
  0
LINE
  8
Engraving
 62
   255
 39
0.008
  6
CONTINUOUS
 10
2.82000
 20
7.04795
 30
 0
 11
2.82283
 21
7.05012
  0
LINE
  8
Engraving
 62
   255
 39
0.008
  6
CONTINUOUS
 10
2.82283
 20
7.05012
 30
 0
 11
2.82535
 21
7.05272
  0
LINE
  8
Engraving
 62
   255
 39
0.008
  6
CONTINUOUS
 10
2.82535
 20
7.05272
 30
 0
 11
2.82752
 21
7.05571
  0
LINE
  8
Engraving
 62
   255
 39
0.008
  6
CONTINUOUS
 10
2.82752
 20
7.05571
 30
 0
 11
2.82925
 21
7.05902
  0
LINE
  8
Engraving
 62
   255
 39
0.008
  6
CONTINUOUS
 10
2.82925
 20
7.05902
 30
 0
 11
2.83051
 21
7.06256
  0
LINE
  8
Engraving
 62
   255
 39
0.008
  6
CONTINUOUS
 10
2.83051
 20
7.06256
 30
 0
 11
2.83126
 21
7.06630
  0
LINE
  8
Engraving
 62
   255
 39
0.008
  6
CONTINUOUS
 10
2.83126
 20
7.06630
 30
 0
 11
2.83154
 21
7.07012
  0
LINE
  8
Engraving
 62
   255
 39
0.008
  6
CONTINUOUS
 10
2.83154
 20
7.07012
 30
 0
 11
2.83154
 21
7.07012
  0
LINE
  8
Engraving
 62
   255
 39
0.008
  6
CONTINUOUS
 10
2.86165
 20
7.04453
 30
 0
 11
2.89354
 21
7.16264
  0
LINE
  8
Engraving
 62
   255
 39
0.008
  6
CONTINUOUS
 10
2.89354
 20
7.16264
 30
 0
 11
2.92543
 21
7.04453
  0
LINE
  8
Engraving
 62
   255
 39
0.008
  6
CONTINUOUS
 10
2.87228
 20
7.07996
 30
 0
 11
2.91480
 21
7.07996
  0
LINE
  8
Engraving
 62
   255
 39
0.008
  6
CONTINUOUS
 10
2.95555
 20
7.16264
 30
 0
 11
2.97945
 21
7.08882
  0
LINE
  8
Engraving
 62
   255
 39
0.008
  6
CONTINUOUS
 10
2.97945
 20
7.08882
 30
 0
 11
2.97945
 21
7.04453
  0
LINE
  8
Engraving
 62
   255
 39
0.008
  6
CONTINUOUS
 10
2.97945
 20
7.04453
 30
 0
 11
2.97945
 21
7.08882
  0
LINE
  8
Engraving
 62
   255
 39
0.008
  6
CONTINUOUS
 10
2.97945
 20
7.08882
 30
 0
 11
3.00339
 21
7.16264
  0
LINE
  8
Engraving
 62
   255
 39
0.008
  6
CONTINUOUS
 10
2.55331
 20
6.51634
 30
 0
 11
2.65173
 21
6.51634
  0
LINE
  8
Engraving
 62
   255
 39
0.008
  6
CONTINUOUS
 10
2.60252
 20
6.56555
 30
 0
 11
2.60252
 21
6.46713
  0
LINE
  8
Engraving
 62
   255
 39
0.008
  6
CONTINUOUS
 10
2.35646
 20
6.09012
 30
 0
 11
2.49421
 21
6.32878
  0
LINE
  8
Engraving
 62
   255
 39
0.008
  6
CONTINUOUS
 10
2.49421
 20
6.32878
 30
 0
 11
2.49425
 21
6.32878
  0
LINE
  8
Engraving
 62
   255
 39
0.008
  6
CONTINUOUS
 10
2.84858
 20
6.09012
 30
 0
 11
2.71079
 21
6.32878
  0
LINE
  8
Engraving
 62
   255
 39
0.008
  6
CONTINUOUS
 10
2.71079
 20
6.32878
 30
 0
 11
2.71079
 21
6.32878
  0
LINE
  8
Engraving
 62
   255
 39
0.008
  6
CONTINUOUS
 10
2.79004
 20
6.40803
 30
 0
 11
2.79004
 21
6.40803
  0
LINE
  8
Engraving
 62
   255
 39
0.008
  6
CONTINUOUS
 10
2.79004
 20
6.40803
 30
 0
 11
3.02870
 21
6.27024
  0
LINE
  8
Engraving
 62
   255
 39
0.008
  6
CONTINUOUS
 10
3.09465
 20
6.51634
 30
 0
 11
2.81906
 21
6.51634
  0
LINE
  8
Engraving
 62
   255
 39
0.008
  6
CONTINUOUS
 10
2.81906
 20
6.51634
 30
 0
 11
2.81906
 21
6.51634
  0
LINE
  8
Engraving
 62
   255
 39
0.008
  6
CONTINUOUS
 10
2.79004
 20
6.62461
 30
 0
 11
2.79004
 21
6.62461
  0
LINE
  8
Engraving
 62
   255
 39
0.008
  6
CONTINUOUS
 10
2.79004
 20
6.62461
 30
 0
 11
3.02870
 21
6.76240
  0
LINE
  8
Engraving
 62
   255
 39
0.008
  6
CONTINUOUS
 10
2.84854
 20
6.94252
 30
 0
 11
2.71079
 21
6.70386
  0
LINE
  8
Engraving
 62
   255
 39
0.008
  6
CONTINUOUS
 10
2.71079
 20
6.70386
 30
 0
 11
2.71075
 21
6.70386
  0
LINE
  8
Engraving
 62
   255
 39
0.008
  6
CONTINUOUS
 10
2.60252
 20
6.73287
 30
 0
 11
2.60252
 21
6.73287
  0
LINE
  8
Engraving
 62
   255
 39
0.008
  6
CONTINUOUS
 10
2.60252
 20
6.73287
 30
 0
 11
2.60252
 21
7.00846
  0
LINE
  8
Engraving
 62
   255
 39
0.008
  6
CONTINUOUS
 10
2.35646
 20
6.94252
 30
 0
 11
2.49425
 21
6.70386
  0
LINE
  8
Engraving
 62
   255
 39
0.008
  6
CONTINUOUS
 10
2.49425
 20
6.70386
 30
 0
 11
2.49425
 21
6.70386
  0
LINE
  8
Engraving
 62
   255
 39
0.008
  6
CONTINUOUS
 10
2.41496
 20
6.62457
 30
 0
 11
2.41496
 21
6.62461
  0
LINE
  8
Engraving
 62
   255
 39
0.008
  6
CONTINUOUS
 10
2.41496
 20
6.62461
 30
 0
 11
2.17630
 21
6.76236
  0
LINE
  8
Engraving
 62
   255
 39
0.008
  6
CONTINUOUS
 10
2.11039
 20
6.51634
 30
 0
 11
2.38598
 21
6.51634
  0
LINE
  8
Engraving
 62
   255
 39
0.008
  6
CONTINUOUS
 10
2.38598
 20
6.51634
 30
 0
 11
2.38598
 21
6.51634
  0
LINE
  8
Engraving
 62
   255
 39
0.008
  6
CONTINUOUS
 10
2.41496
 20
6.40807
 30
 0
 11
2.41496
 21
6.40807
  0
LINE
  8
Engraving
 62
   255
 39
0.008
  6
CONTINUOUS
 10
2.41496
 20
6.40807
 30
 0
 11
2.17630
 21
6.27028
  0
LINE
  8
Engraving
 62
   255
 39
0.008
  6
CONTINUOUS
 10
0.55209
 20
5.73433
 30
 0
 11
0.55209
 21
5.85244
  0
LINE
  8
Engraving
 62
   255
 39
0.008
  6
CONTINUOUS
 10
0.55209
 20
5.85244
 30
 0
 11
0.57335
 21
5.85244
  0
LINE
  8
Engraving
 62
   255
 39
0.008
  6
CONTINUOUS
 10
0.57335
 20
5.85244
 30
 0
 11
0.57724
 21
5.85217
  0
LINE
  8
Engraving
 62
   255
 39
0.008
  6
CONTINUOUS
 10
0.57724
 20
5.85217
 30
 0
 11
0.58102
 21
5.85122
  0
LINE
  8
Engraving
 62
   255
 39
0.008
  6
CONTINUOUS
 10
0.58102
 20
5.85122
 30
 0
 11
0.58469
 21
5.84969
  0
LINE
  8
Engraving
 62
   255
 39
0.008
  6
CONTINUOUS
 10
0.58469
 20
5.84969
 30
 0
 11
0.58803
 21
5.84760
  0
LINE
  8
Engraving
 62
   255
 39
0.008
  6
CONTINUOUS
 10
0.58803
 20
5.84760
 30
 0
 11
0.59110
 21
5.84496
  0
LINE
  8
Engraving
 62
   255
 39
0.008
  6
CONTINUOUS
 10
0.59110
 20
5.84496
 30
 0
 11
0.59382
 21
5.84189
  0
LINE
  8
Engraving
 62
   255
 39
0.008
  6
CONTINUOUS
 10
0.59382
 20
5.84189
 30
 0
 11
0.59606
 21
5.83835
  0
LINE
  8
Engraving
 62
   255
 39
0.008
  6
CONTINUOUS
 10
0.59606
 20
5.83835
 30
 0
 11
0.59783
 21
5.83453
  0
LINE
  8
Engraving
 62
   255
 39
0.008
  6
CONTINUOUS
 10
0.59783
 20
5.83453
 30
 0
 11
0.59909
 21
5.83043
  0
LINE
  8
Engraving
 62
   255
 39
0.008
  6
CONTINUOUS
 10
0.59909
 20
5.83043
 30
 0
 11
0.59980
 21
5.82622
  0
LINE
  8
Engraving
 62
   255
 39
0.008
  6
CONTINUOUS
 10
0.59980
 20
5.82622
 30
 0
 11
0.59992
 21
5.82291
  0
LINE
  8
Engraving
 62
   255
 39
0.008
  6
CONTINUOUS
 10
0.59992
 20
5.82291
 30
 0
 11
0.59992
 21
5.76386
  0
LINE
  8
Engraving
 62
   255
 39
0.008
  6
CONTINUOUS
 10
0.59992
 20
5.76386
 30
 0
 11
0.59969
 21
5.75957
  0
LINE
  8
Engraving
 62
   255
 39
0.008
  6
CONTINUOUS
 10
0.59969
 20
5.75957
 30
 0
 11
0.59886
 21
5.75535
  0
LINE
  8
Engraving
 62
   255
 39
0.008
  6
CONTINUOUS
 10
0.59886
 20
5.75535
 30
 0
 11
0.59744
 21
5.75130
  0
LINE
  8
Engraving
 62
   255
 39
0.008
  6
CONTINUOUS
 10
0.59744
 20
5.75130
 30
 0
 11
0.59559
 21
5.74756
  0
LINE
  8
Engraving
 62
   255
 39
0.008
  6
CONTINUOUS
 10
0.59559
 20
5.74756
 30
 0
 11
0.59319
 21
5.74413
  0
LINE
  8
Engraving
 62
   255
 39
0.008
  6
CONTINUOUS
 10
0.59319
 20
5.74413
 30
 0
 11
0.59043
 21
5.74114
  0
LINE
  8
Engraving
 62
   255
 39
0.008
  6
CONTINUOUS
 10
0.59043
 20
5.74114
 30
 0
 11
0.58724
 21
5.73862
  0
LINE
  8
Engraving
 62
   255
 39
0.008
  6
CONTINUOUS
 10
0.58724
 20
5.73862
 30
 0
 11
0.58382
 21
5.73665
  0
LINE
  8
Engraving
 62
   255
 39
0.008
  6
CONTINUOUS
 10
0.58382
 20
5.73665
 30
 0
 11
0.58012
 21
5.73528
  0
LINE
  8
Engraving
 62
   255
 39
0.008
  6
CONTINUOUS
 10
0.58012
 20
5.73528
 30
 0
 11
0.57634
 21
5.73449
  0
LINE
  8
Engraving
 62
   255
 39
0.008
  6
CONTINUOUS
 10
0.57634
 20
5.73449
 30
 0
 11
0.57335
 21
5.73433
  0
LINE
  8
Engraving
 62
   255
 39
0.008
  6
CONTINUOUS
 10
0.57335
 20
5.73433
 30
 0
 11
0.55209
 21
5.73433
  0
LINE
  8
Engraving
 62
   255
 39
0.008
  6
CONTINUOUS
 10
0.63004
 20
5.85244
 30
 0
 11
0.63004
 21
5.73433
  0
LINE
  8
Engraving
 62
   255
 39
0.008
  6
CONTINUOUS
 10
0.66016
 20
5.76386
 30
 0
 11
0.66047
 21
5.75945
  0
LINE
  8
Engraving
 62
   255
 39
0.008
  6
CONTINUOUS
 10
0.66047
 20
5.75945
 30
 0
 11
0.66134
 21
5.75516
  0
LINE
  8
Engraving
 62
   255
 39
0.008
  6
CONTINUOUS
 10
0.66134
 20
5.75516
 30
 0
 11
0.66280
 21
5.75106
  0
LINE
  8
Engraving
 62
   255
 39
0.008
  6
CONTINUOUS
 10
0.66280
 20
5.75106
 30
 0
 11
0.66476
 21
5.74724
  0
LINE
  8
Engraving
 62
   255
 39
0.008
  6
CONTINUOUS
 10
0.66476
 20
5.74724
 30
 0
 11
0.66724
 21
5.74378
  0
LINE
  8
Engraving
 62
   255
 39
0.008
  6
CONTINUOUS
 10
0.66724
 20
5.74378
 30
 0
 11
0.67016
 21
5.74079
  0
LINE
  8
Engraving
 62
   255
 39
0.008
  6
CONTINUOUS
 10
0.67016
 20
5.74079
 30
 0
 11
0.67346
 21
5.73827
  0
LINE
  8
Engraving
 62
   255
 39
0.008
  6
CONTINUOUS
 10
0.67346
 20
5.73827
 30
 0
 11
0.67705
 21
5.73638
  0
LINE
  8
Engraving
 62
   255
 39
0.008
  6
CONTINUOUS
 10
0.67705
 20
5.73638
 30
 0
 11
0.68083
 21
5.73508
  0
LINE
  8
Engraving
 62
   255
 39
0.008
  6
CONTINUOUS
 10
0.68083
 20
5.73508
 30
 0
 11
0.68476
 21
5.73441
  0
LINE
  8
Engraving
 62
   255
 39
0.008
  6
CONTINUOUS
 10
0.68476
 20
5.73441
 30
 0
 11
0.68874
 21
5.73441
  0
LINE
  8
Engraving
 62
   255
 39
0.008
  6
CONTINUOUS
 10
0.68874
 20
5.73441
 30
 0
 11
0.69268
 21
5.73508
  0
LINE
  8
Engraving
 62
   255
 39
0.008
  6
CONTINUOUS
 10
0.69268
 20
5.73508
 30
 0
 11
0.69646
 21
5.73638
  0
LINE
  8
Engraving
 62
   255
 39
0.008
  6
CONTINUOUS
 10
0.69646
 20
5.73638
 30
 0
 11
0.70004
 21
5.73827
  0
LINE
  8
Engraving
 62
   255
 39
0.008
  6
CONTINUOUS
 10
0.70004
 20
5.73827
 30
 0
 11
0.70335
 21
5.74079
  0
LINE
  8
Engraving
 62
   255
 39
0.008
  6
CONTINUOUS
 10
0.70335
 20
5.74079
 30
 0
 11
0.70622
 21
5.74378
  0
LINE
  8
Engraving
 62
   255
 39
0.008
  6
CONTINUOUS
 10
0.70622
 20
5.74378
 30
 0
 11
0.70870
 21
5.74724
  0
LINE
  8
Engraving
 62
   255
 39
0.008
  6
CONTINUOUS
 10
0.70870
 20
5.74724
 30
 0
 11
0.71071
 21
5.75106
  0
LINE
  8
Engraving
 62
   255
 39
0.008
  6
CONTINUOUS
 10
0.71071
 20
5.75106
 30
 0
 11
0.71217
 21
5.75516
  0
LINE
  8
Engraving
 62
   255
 39
0.008
  6
CONTINUOUS
 10
0.71217
 20
5.75516
 30
 0
 11
0.71303
 21
5.75945
  0
LINE
  8
Engraving
 62
   255
 39
0.008
  6
CONTINUOUS
 10
0.71303
 20
5.75945
 30
 0
 11
0.71331
 21
5.76386
  0
LINE
  8
Engraving
 62
   255
 39
0.008
  6
CONTINUOUS
 10
0.71331
 20
5.76386
 30
 0
 11
0.71331
 21
5.76386
  0
LINE
  8
Engraving
 62
   255
 39
0.008
  6
CONTINUOUS
 10
0.71331
 20
5.76386
 30
 0
 11
0.71307
 21
5.76807
  0
LINE
  8
Engraving
 62
   255
 39
0.008
  6
CONTINUOUS
 10
0.71307
 20
5.76807
 30
 0
 11
0.71228
 21
5.77220
  0
LINE
  8
Engraving
 62
   255
 39
0.008
  6
CONTINUOUS
 10
0.71228
 20
5.77220
 30
 0
 11
0.71094
 21
5.77614
  0
LINE
  8
Engraving
 62
   255
 39
0.008
  6
CONTINUOUS
 10
0.71094
 20
5.77614
 30
 0
 11
0.70913
 21
5.77984
  0
LINE
  8
Engraving
 62
   255
 39
0.008
  6
CONTINUOUS
 10
0.70913
 20
5.77984
 30
 0
 11
0.70689
 21
5.78323
  0
LINE
  8
Engraving
 62
   255
 39
0.008
  6
CONTINUOUS
 10
0.70689
 20
5.78323
 30
 0
 11
0.70417
 21
5.78622
  0
LINE
  8
Engraving
 62
   255
 39
0.008
  6
CONTINUOUS
 10
0.70417
 20
5.78622
 30
 0
 11
0.70114
 21
5.78874
  0
LINE
  8
Engraving
 62
   255
 39
0.008
  6
CONTINUOUS
 10
0.70114
 20
5.78874
 30
 0
 11
0.69780
 21
5.79075
  0
LINE
  8
Engraving
 62
   255
 39
0.008
  6
CONTINUOUS
 10
0.69780
 20
5.79075
 30
 0
 11
0.69425
 21
5.79224
  0
LINE
  8
Engraving
 62
   255
 39
0.008
  6
CONTINUOUS
 10
0.69425
 20
5.79224
 30
 0
 11
0.69055
 21
5.79311
  0
LINE
  8
Engraving
 62
   255
 39
0.008
  6
CONTINUOUS
 10
0.69055
 20
5.79311
 30
 0
 11
0.68673
 21
5.79339
  0
LINE
  8
Engraving
 62
   255
 39
0.008
  6
CONTINUOUS
 10
0.68673
 20
5.79339
 30
 0
 11
0.68673
 21
5.79339
  0
LINE
  8
Engraving
 62
   255
 39
0.008
  6
CONTINUOUS
 10
0.68673
 20
5.79339
 30
 0
 11
0.68280
 21
5.79370
  0
LINE
  8
Engraving
 62
   255
 39
0.008
  6
CONTINUOUS
 10
0.68280
 20
5.79370
 30
 0
 11
0.67894
 21
5.79469
  0
LINE
  8
Engraving
 62
   255
 39
0.008
  6
CONTINUOUS
 10
0.67894
 20
5.79469
 30
 0
 11
0.67524
 21
5.79630
  0
LINE
  8
Engraving
 62
   255
 39
0.008
  6
CONTINUOUS
 10
0.67524
 20
5.79630
 30
 0
 11
0.67181
 21
5.79850
  0
LINE
  8
Engraving
 62
   255
 39
0.008
  6
CONTINUOUS
 10
0.67181
 20
5.79850
 30
 0
 11
0.66866
 21
5.80126
  0
LINE
  8
Engraving
 62
   255
 39
0.008
  6
CONTINUOUS
 10
0.66866
 20
5.80126
 30
 0
 11
0.66598
 21
5.80449
  0
LINE
  8
Engraving
 62
   255
 39
0.008
  6
CONTINUOUS
 10
0.66598
 20
5.80449
 30
 0
 11
0.66370
 21
5.80815
  0
LINE
  8
Engraving
 62
   255
 39
0.008
  6
CONTINUOUS
 10
0.66370
 20
5.80815
 30
 0
 11
0.66201
 21
5.81213
  0
LINE
  8
Engraving
 62
   255
 39
0.008
  6
CONTINUOUS
 10
0.66201
 20
5.81213
 30
 0
 11
0.66087
 21
5.81634
  0
LINE
  8
Engraving
 62
   255
 39
0.008
  6
CONTINUOUS
 10
0.66087
 20
5.81634
 30
 0
 11
0.66024
 21
5.82071
  0
LINE
  8
Engraving
 62
   255
 39
0.008
  6
CONTINUOUS
 10
0.66024
 20
5.82071
 30
 0
 11
0.66024
 21
5.82512
  0
LINE
  8
Engraving
 62
   255
 39
0.008
  6
CONTINUOUS
 10
0.66024
 20
5.82512
 30
 0
 11
0.66087
 21
5.82949
  0
LINE
  8
Engraving
 62
   255
 39
0.008
  6
CONTINUOUS
 10
0.66087
 20
5.82949
 30
 0
 11
0.66201
 21
5.83370
  0
LINE
  8
Engraving
 62
   255
 39
0.008
  6
CONTINUOUS
 10
0.66201
 20
5.83370
 30
 0
 11
0.66370
 21
5.83768
  0
LINE
  8
Engraving
 62
   255
 39
0.008
  6
CONTINUOUS
 10
0.66370
 20
5.83768
 30
 0
 11
0.66598
 21
5.84134
  0
LINE
  8
Engraving
 62
   255
 39
0.008
  6
CONTINUOUS
 10
0.66598
 20
5.84134
 30
 0
 11
0.66866
 21
5.84457
  0
LINE
  8
Engraving
 62
   255
 39
0.008
  6
CONTINUOUS
 10
0.66866
 20
5.84457
 30
 0
 11
0.67181
 21
5.84732
  0
LINE
  8
Engraving
 62
   255
 39
0.008
  6
CONTINUOUS
 10
0.67181
 20
5.84732
 30
 0
 11
0.67524
 21
5.84953
  0
LINE
  8
Engraving
 62
   255
 39
0.008
  6
CONTINUOUS
 10
0.67524
 20
5.84953
 30
 0
 11
0.67894
 21
5.85114
  0
LINE
  8
Engraving
 62
   255
 39
0.008
  6
CONTINUOUS
 10
0.67894
 20
5.85114
 30
 0
 11
0.68280
 21
5.85213
  0
LINE
  8
Engraving
 62
   255
 39
0.008
  6
CONTINUOUS
 10
0.68280
 20
5.85213
 30
 0
 11
0.68673
 21
5.85244
  0
LINE
  8
Engraving
 62
   255
 39
0.008
  6
CONTINUOUS
 10
0.68673
 20
5.85244
 30
 0
 11
0.68673
 21
5.85244
  0
LINE
  8
Engraving
 62
   255
 39
0.008
  6
CONTINUOUS
 10
0.68673
 20
5.85244
 30
 0
 11
0.69063
 21
5.85217
  0
LINE
  8
Engraving
 62
   255
 39
0.008
  6
CONTINUOUS
 10
0.69063
 20
5.85217
 30
 0
 11
0.69441
 21
5.85122
  0
LINE
  8
Engraving
 62
   255
 39
0.008
  6
CONTINUOUS
 10
0.69441
 20
5.85122
 30
 0
 11
0.69807
 21
5.84969
  0
LINE
  8
Engraving
 62
   255
 39
0.008
  6
CONTINUOUS
 10
0.69807
 20
5.84969
 30
 0
 11
0.70142
 21
5.84760
  0
LINE
  8
Engraving
 62
   255
 39
0.008
  6
CONTINUOUS
 10
0.70142
 20
5.84760
 30
 0
 11
0.70449
 21
5.84496
  0
LINE
  8
Engraving
 62
   255
 39
0.008
  6
CONTINUOUS
 10
0.70449
 20
5.84496
 30
 0
 11
0.70720
 21
5.84189
  0
LINE
  8
Engraving
 62
   255
 39
0.008
  6
CONTINUOUS
 10
0.70720
 20
5.84189
 30
 0
 11
0.70945
 21
5.83835
  0
LINE
  8
Engraving
 62
   255
 39
0.008
  6
CONTINUOUS
 10
0.70945
 20
5.83835
 30
 0
 11
0.71122
 21
5.83453
  0
LINE
  8
Engraving
 62
   255
 39
0.008
  6
CONTINUOUS
 10
0.71122
 20
5.83453
 30
 0
 11
0.71248
 21
5.83043
  0
LINE
  8
Engraving
 62
   255
 39
0.008
  6
CONTINUOUS
 10
0.71248
 20
5.83043
 30
 0
 11
0.71319
 21
5.82622
  0
LINE
  8
Engraving
 62
   255
 39
0.008
  6
CONTINUOUS
 10
0.71319
 20
5.82622
 30
 0
 11
0.71331
 21
5.82291
  0
LINE
  8
Engraving
 62
   255
 39
0.008
  6
CONTINUOUS
 10
0.74343
 20
5.85244
 30
 0
 11
0.79126
 21
5.85244
  0
LINE
  8
Engraving
 62
   255
 39
0.008
  6
CONTINUOUS
 10
0.79126
 20
5.85244
 30
 0
 11
0.76736
 21
5.85244
  0
LINE
  8
Engraving
 62
   255
 39
0.008
  6
CONTINUOUS
 10
0.76736
 20
5.85244
 30
 0
 11
0.76736
 21
5.73433
  0
LINE
  8
Engraving
 62
   255
 39
0.008
  6
CONTINUOUS
 10
0.82138
 20
5.76091
 30
 0
 11
0.82169
 21
5.75693
  0
LINE
  8
Engraving
 62
   255
 39
0.008
  6
CONTINUOUS
 10
0.82169
 20
5.75693
 30
 0
 11
0.82244
 21
5.75307
  0
LINE
  8
Engraving
 62
   255
 39
0.008
  6
CONTINUOUS
 10
0.82244
 20
5.75307
 30
 0
 11
0.82378
 21
5.74937
  0
LINE
  8
Engraving
 62
   255
 39
0.008
  6
CONTINUOUS
 10
0.82378
 20
5.74937
 30
 0
 11
0.82555
 21
5.74594
  0
LINE
  8
Engraving
 62
   255
 39
0.008
  6
CONTINUOUS
 10
0.82555
 20
5.74594
 30
 0
 11
0.82776
 21
5.74283
  0
LINE
  8
Engraving
 62
   255
 39
0.008
  6
CONTINUOUS
 10
0.82776
 20
5.74283
 30
 0
 11
0.83039
 21
5.74012
  0
LINE
  8
Engraving
 62
   255
 39
0.008
  6
CONTINUOUS
 10
0.83039
 20
5.74012
 30
 0
 11
0.83339
 21
5.73787
  0
LINE
  8
Engraving
 62
   255
 39
0.008
  6
CONTINUOUS
 10
0.83339
 20
5.73787
 30
 0
 11
0.83657
 21
5.73618
  0
LINE
  8
Engraving
 62
   255
 39
0.008
  6
CONTINUOUS
 10
0.83657
 20
5.73618
 30
 0
 11
0.84000
 21
5.73500
  0
LINE
  8
Engraving
 62
   255
 39
0.008
  6
CONTINUOUS
 10
0.84000
 20
5.73500
 30
 0
 11
0.84354
 21
5.73441
  0
LINE
  8
Engraving
 62
   255
 39
0.008
  6
CONTINUOUS
 10
0.84354
 20
5.73441
 30
 0
 11
0.84709
 21
5.73441
  0
LINE
  8
Engraving
 62
   255
 39
0.008
  6
CONTINUOUS
 10
0.84709
 20
5.73441
 30
 0
 11
0.85063
 21
5.73500
  0
LINE
  8
Engraving
 62
   255
 39
0.008
  6
CONTINUOUS
 10
0.85063
 20
5.73500
 30
 0
 11
0.85406
 21
5.73618
  0
LINE
  8
Engraving
 62
   255
 39
0.008
  6
CONTINUOUS
 10
0.85406
 20
5.73618
 30
 0
 11
0.85728
 21
5.73787
  0
LINE
  8
Engraving
 62
   255
 39
0.008
  6
CONTINUOUS
 10
0.85728
 20
5.73787
 30
 0
 11
0.86024
 21
5.74012
  0
LINE
  8
Engraving
 62
   255
 39
0.008
  6
CONTINUOUS
 10
0.86024
 20
5.74012
 30
 0
 11
0.86283
 21
5.74283
  0
LINE
  8
Engraving
 62
   255
 39
0.008
  6
CONTINUOUS
 10
0.86283
 20
5.74283
 30
 0
 11
0.86508
 21
5.74594
  0
LINE
  8
Engraving
 62
   255
 39
0.008
  6
CONTINUOUS
 10
0.86508
 20
5.74594
 30
 0
 11
0.86685
 21
5.74937
  0
LINE
  8
Engraving
 62
   255
 39
0.008
  6
CONTINUOUS
 10
0.86685
 20
5.74937
 30
 0
 11
0.86815
 21
5.75307
  0
LINE
  8
Engraving
 62
   255
 39
0.008
  6
CONTINUOUS
 10
0.86815
 20
5.75307
 30
 0
 11
0.86894
 21
5.75693
  0
LINE
  8
Engraving
 62
   255
 39
0.008
  6
CONTINUOUS
 10
0.86894
 20
5.75693
 30
 0
 11
0.86921
 21
5.76091
  0
LINE
  8
Engraving
 62
   255
 39
0.008
  6
CONTINUOUS
 10
0.86921
 20
5.76091
 30
 0
 11
0.86921
 21
5.76091
  0
LINE
  8
Engraving
 62
   255
 39
0.008
  6
CONTINUOUS
 10
0.86921
 20
5.76091
 30
 0
 11
0.86921
 21
5.82587
  0
LINE
  8
Engraving
 62
   255
 39
0.008
  6
CONTINUOUS
 10
0.86921
 20
5.82587
 30
 0
 11
0.86894
 21
5.82984
  0
LINE
  8
Engraving
 62
   255
 39
0.008
  6
CONTINUOUS
 10
0.86894
 20
5.82984
 30
 0
 11
0.86815
 21
5.83370
  0
LINE
  8
Engraving
 62
   255
 39
0.008
  6
CONTINUOUS
 10
0.86815
 20
5.83370
 30
 0
 11
0.86685
 21
5.83740
  0
LINE
  8
Engraving
 62
   255
 39
0.008
  6
CONTINUOUS
 10
0.86685
 20
5.83740
 30
 0
 11
0.86508
 21
5.84083
  0
LINE
  8
Engraving
 62
   255
 39
0.008
  6
CONTINUOUS
 10
0.86508
 20
5.84083
 30
 0
 11
0.86283
 21
5.84394
  0
LINE
  8
Engraving
 62
   255
 39
0.008
  6
CONTINUOUS
 10
0.86283
 20
5.84394
 30
 0
 11
0.86024
 21
5.84665
  0
LINE
  8
Engraving
 62
   255
 39
0.008
  6
CONTINUOUS
 10
0.86024
 20
5.84665
 30
 0
 11
0.85728
 21
5.84890
  0
LINE
  8
Engraving
 62
   255
 39
0.008
  6
CONTINUOUS
 10
0.85728
 20
5.84890
 30
 0
 11
0.85406
 21
5.85059
  0
LINE
  8
Engraving
 62
   255
 39
0.008
  6
CONTINUOUS
 10
0.85406
 20
5.85059
 30
 0
 11
0.85063
 21
5.85177
  0
LINE
  8
Engraving
 62
   255
 39
0.008
  6
CONTINUOUS
 10
0.85063
 20
5.85177
 30
 0
 11
0.84709
 21
5.85236
  0
LINE
  8
Engraving
 62
   255
 39
0.008
  6
CONTINUOUS
 10
0.84709
 20
5.85236
 30
 0
 11
0.84354
 21
5.85236
  0
LINE
  8
Engraving
 62
   255
 39
0.008
  6
CONTINUOUS
 10
0.84354
 20
5.85236
 30
 0
 11
0.84000
 21
5.85177
  0
LINE
  8
Engraving
 62
   255
 39
0.008
  6
CONTINUOUS
 10
0.84000
 20
5.85177
 30
 0
 11
0.83657
 21
5.85059
  0
LINE
  8
Engraving
 62
   255
 39
0.008
  6
CONTINUOUS
 10
0.83657
 20
5.85059
 30
 0
 11
0.83339
 21
5.84890
  0
LINE
  8
Engraving
 62
   255
 39
0.008
  6
CONTINUOUS
 10
0.83339
 20
5.84890
 30
 0
 11
0.83039
 21
5.84665
  0
LINE
  8
Engraving
 62
   255
 39
0.008
  6
CONTINUOUS
 10
0.83039
 20
5.84665
 30
 0
 11
0.82776
 21
5.84394
  0
LINE
  8
Engraving
 62
   255
 39
0.008
  6
CONTINUOUS
 10
0.82776
 20
5.84394
 30
 0
 11
0.82555
 21
5.84083
  0
LINE
  8
Engraving
 62
   255
 39
0.008
  6
CONTINUOUS
 10
0.82555
 20
5.84083
 30
 0
 11
0.82378
 21
5.83740
  0
LINE
  8
Engraving
 62
   255
 39
0.008
  6
CONTINUOUS
 10
0.82378
 20
5.83740
 30
 0
 11
0.82244
 21
5.83370
  0
LINE
  8
Engraving
 62
   255
 39
0.008
  6
CONTINUOUS
 10
0.82244
 20
5.83370
 30
 0
 11
0.82169
 21
5.82984
  0
LINE
  8
Engraving
 62
   255
 39
0.008
  6
CONTINUOUS
 10
0.82169
 20
5.82984
 30
 0
 11
0.82138
 21
5.82587
  0
LINE
  8
Engraving
 62
   255
 39
0.008
  6
CONTINUOUS
 10
0.82138
 20
5.82587
 30
 0
 11
0.82138
 21
5.82587
  0
LINE
  8
Engraving
 62
   255
 39
0.008
  6
CONTINUOUS
 10
0.82138
 20
5.82587
 30
 0
 11
0.82138
 21
5.76091
  0
LINE
  8
Engraving
 62
   255
 39
0.008
  6
CONTINUOUS
 10
0.89846
 20
5.73433
 30
 0
 11
0.89846
 21
5.85244
  0
LINE
  8
Engraving
 62
   255
 39
0.008
  6
CONTINUOUS
 10
0.89846
 20
5.85244
 30
 0
 11
0.92240
 21
5.85244
  0
LINE
  8
Engraving
 62
   255
 39
0.008
  6
CONTINUOUS
 10
0.92240
 20
5.85244
 30
 0
 11
0.92634
 21
5.85213
  0
LINE
  8
Engraving
 62
   255
 39
0.008
  6
CONTINUOUS
 10
0.92634
 20
5.85213
 30
 0
 11
0.93020
 21
5.85114
  0
LINE
  8
Engraving
 62
   255
 39
0.008
  6
CONTINUOUS
 10
0.93020
 20
5.85114
 30
 0
 11
0.93390
 21
5.84953
  0
LINE
  8
Engraving
 62
   255
 39
0.008
  6
CONTINUOUS
 10
0.93390
 20
5.84953
 30
 0
 11
0.93732
 21
5.84732
  0
LINE
  8
Engraving
 62
   255
 39
0.008
  6
CONTINUOUS
 10
0.93732
 20
5.84732
 30
 0
 11
0.94047
 21
5.84457
  0
LINE
  8
Engraving
 62
   255
 39
0.008
  6
CONTINUOUS
 10
0.94047
 20
5.84457
 30
 0
 11
0.94315
 21
5.84134
  0
LINE
  8
Engraving
 62
   255
 39
0.008
  6
CONTINUOUS
 10
0.94315
 20
5.84134
 30
 0
 11
0.94543
 21
5.83768
  0
LINE
  8
Engraving
 62
   255
 39
0.008
  6
CONTINUOUS
 10
0.94543
 20
5.83768
 30
 0
 11
0.94713
 21
5.83370
  0
LINE
  8
Engraving
 62
   255
 39
0.008
  6
CONTINUOUS
 10
0.94713
 20
5.83370
 30
 0
 11
0.94827
 21
5.82949
  0
LINE
  8
Engraving
 62
   255
 39
0.008
  6
CONTINUOUS
 10
0.94827
 20
5.82949
 30
 0
 11
0.94890
 21
5.82512
  0
LINE
  8
Engraving
 62
   255
 39
0.008
  6
CONTINUOUS
 10
0.94890
 20
5.82512
 30
 0
 11
0.94890
 21
5.82071
  0
LINE
  8
Engraving
 62
   255
 39
0.008
  6
CONTINUOUS
 10
0.94890
 20
5.82071
 30
 0
 11
0.94827
 21
5.81634
  0
LINE
  8
Engraving
 62
   255
 39
0.008
  6
CONTINUOUS
 10
0.94827
 20
5.81634
 30
 0
 11
0.94713
 21
5.81213
  0
LINE
  8
Engraving
 62
   255
 39
0.008
  6
CONTINUOUS
 10
0.94713
 20
5.81213
 30
 0
 11
0.94543
 21
5.80815
  0
LINE
  8
Engraving
 62
   255
 39
0.008
  6
CONTINUOUS
 10
0.94543
 20
5.80815
 30
 0
 11
0.94315
 21
5.80449
  0
LINE
  8
Engraving
 62
   255
 39
0.008
  6
CONTINUOUS
 10
0.94315
 20
5.80449
 30
 0
 11
0.94047
 21
5.80126
  0
LINE
  8
Engraving
 62
   255
 39
0.008
  6
CONTINUOUS
 10
0.94047
 20
5.80126
 30
 0
 11
0.93732
 21
5.79850
  0
LINE
  8
Engraving
 62
   255
 39
0.008
  6
CONTINUOUS
 10
0.93732
 20
5.79850
 30
 0
 11
0.93390
 21
5.79630
  0
LINE
  8
Engraving
 62
   255
 39
0.008
  6
CONTINUOUS
 10
0.93390
 20
5.79630
 30
 0
 11
0.93020
 21
5.79469
  0
LINE
  8
Engraving
 62
   255
 39
0.008
  6
CONTINUOUS
 10
0.93020
 20
5.79469
 30
 0
 11
0.92634
 21
5.79370
  0
LINE
  8
Engraving
 62
   255
 39
0.008
  6
CONTINUOUS
 10
0.92634
 20
5.79370
 30
 0
 11
0.92240
 21
5.79339
  0
LINE
  8
Engraving
 62
   255
 39
0.008
  6
CONTINUOUS
 10
0.92240
 20
5.79339
 30
 0
 11
0.92240
 21
5.79339
  0
LINE
  8
Engraving
 62
   255
 39
0.008
  6
CONTINUOUS
 10
0.92240
 20
5.79339
 30
 0
 11
0.89846
 21
5.79339
  0
LINE
  8
Engraving
 62
   255
 39
0.008
  6
CONTINUOUS
 10
0.89846
 20
5.79339
 30
 0
 11
0.92240
 21
5.79339
  0
LINE
  8
Engraving
 62
   255
 39
0.008
  6
CONTINUOUS
 10
0.92240
 20
5.79339
 30
 0
 11
0.94898
 21
5.73433
  0
LINE
  8
Engraving
 62
   255
 39
0.008
  6
CONTINUOUS
 10
0.97909
 20
5.85244
 30
 0
 11
1.02693
 21
5.85244
  0
LINE
  8
Engraving
 62
   255
 39
0.008
  6
CONTINUOUS
 10
1.02693
 20
5.85244
 30
 0
 11
1.00299
 21
5.85244
  0
LINE
  8
Engraving
 62
   255
 39
0.008
  6
CONTINUOUS
 10
1.00299
 20
5.85244
 30
 0
 11
1.00299
 21
5.73433
  0
LINE
  8
Engraving
 62
   255
 39
0.008
  6
CONTINUOUS
 10
1.05705
 20
5.85244
 30
 0
 11
1.05705
 21
5.73433
  0
LINE
  8
Engraving
 62
   255
 39
0.008
  6
CONTINUOUS
 10
1.08717
 20
5.76091
 30
 0
 11
1.08744
 21
5.75693
  0
LINE
  8
Engraving
 62
   255
 39
0.008
  6
CONTINUOUS
 10
1.08744
 20
5.75693
 30
 0
 11
1.08823
 21
5.75307
  0
LINE
  8
Engraving
 62
   255
 39
0.008
  6
CONTINUOUS
 10
1.08823
 20
5.75307
 30
 0
 11
1.08953
 21
5.74937
  0
LINE
  8
Engraving
 62
   255
 39
0.008
  6
CONTINUOUS
 10
1.08953
 20
5.74937
 30
 0
 11
1.09130
 21
5.74594
  0
LINE
  8
Engraving
 62
   255
 39
0.008
  6
CONTINUOUS
 10
1.09130
 20
5.74594
 30
 0
 11
1.09354
 21
5.74283
  0
LINE
  8
Engraving
 62
   255
 39
0.008
  6
CONTINUOUS
 10
1.09354
 20
5.74283
 30
 0
 11
1.09614
 21
5.74012
  0
LINE
  8
Engraving
 62
   255
 39
0.008
  6
CONTINUOUS
 10
1.09614
 20
5.74012
 30
 0
 11
1.09913
 21
5.73787
  0
LINE
  8
Engraving
 62
   255
 39
0.008
  6
CONTINUOUS
 10
1.09913
 20
5.73787
 30
 0
 11
1.10232
 21
5.73618
  0
LINE
  8
Engraving
 62
   255
 39
0.008
  6
CONTINUOUS
 10
1.10232
 20
5.73618
 30
 0
 11
1.10575
 21
5.73500
  0
LINE
  8
Engraving
 62
   255
 39
0.008
  6
CONTINUOUS
 10
1.10575
 20
5.73500
 30
 0
 11
1.10929
 21
5.73441
  0
LINE
  8
Engraving
 62
   255
 39
0.008
  6
CONTINUOUS
 10
1.10929
 20
5.73441
 30
 0
 11
1.11283
 21
5.73441
  0
LINE
  8
Engraving
 62
   255
 39
0.008
  6
CONTINUOUS
 10
1.11283
 20
5.73441
 30
 0
 11
1.11638
 21
5.73500
  0
LINE
  8
Engraving
 62
   255
 39
0.008
  6
CONTINUOUS
 10
1.11638
 20
5.73500
 30
 0
 11
1.11980
 21
5.73618
  0
LINE
  8
Engraving
 62
   255
 39
0.008
  6
CONTINUOUS
 10
1.11980
 20
5.73618
 30
 0
 11
1.12303
 21
5.73787
  0
LINE
  8
Engraving
 62
   255
 39
0.008
  6
CONTINUOUS
 10
1.12303
 20
5.73787
 30
 0
 11
1.12598
 21
5.74012
  0
LINE
  8
Engraving
 62
   255
 39
0.008
  6
CONTINUOUS
 10
1.12598
 20
5.74012
 30
 0
 11
1.12862
 21
5.74283
  0
LINE
  8
Engraving
 62
   255
 39
0.008
  6
CONTINUOUS
 10
1.12862
 20
5.74283
 30
 0
 11
1.13083
 21
5.74594
  0
LINE
  8
Engraving
 62
   255
 39
0.008
  6
CONTINUOUS
 10
1.13083
 20
5.74594
 30
 0
 11
1.13260
 21
5.74937
  0
LINE
  8
Engraving
 62
   255
 39
0.008
  6
CONTINUOUS
 10
1.13260
 20
5.74937
 30
 0
 11
1.13394
 21
5.75307
  0
LINE
  8
Engraving
 62
   255
 39
0.008
  6
CONTINUOUS
 10
1.13394
 20
5.75307
 30
 0
 11
1.13469
 21
5.75693
  0
LINE
  8
Engraving
 62
   255
 39
0.008
  6
CONTINUOUS
 10
1.13469
 20
5.75693
 30
 0
 11
1.13500
 21
5.76091
  0
LINE
  8
Engraving
 62
   255
 39
0.008
  6
CONTINUOUS
 10
1.13500
 20
5.76091
 30
 0
 11
1.13500
 21
5.76091
  0
LINE
  8
Engraving
 62
   255
 39
0.008
  6
CONTINUOUS
 10
1.13500
 20
5.76091
 30
 0
 11
1.13500
 21
5.82587
  0
LINE
  8
Engraving
 62
   255
 39
0.008
  6
CONTINUOUS
 10
1.13500
 20
5.82587
 30
 0
 11
1.13469
 21
5.82984
  0
LINE
  8
Engraving
 62
   255
 39
0.008
  6
CONTINUOUS
 10
1.13469
 20
5.82984
 30
 0
 11
1.13394
 21
5.83370
  0
LINE
  8
Engraving
 62
   255
 39
0.008
  6
CONTINUOUS
 10
1.13394
 20
5.83370
 30
 0
 11
1.13260
 21
5.83740
  0
LINE
  8
Engraving
 62
   255
 39
0.008
  6
CONTINUOUS
 10
1.13260
 20
5.83740
 30
 0
 11
1.13083
 21
5.84083
  0
LINE
  8
Engraving
 62
   255
 39
0.008
  6
CONTINUOUS
 10
1.13083
 20
5.84083
 30
 0
 11
1.12862
 21
5.84394
  0
LINE
  8
Engraving
 62
   255
 39
0.008
  6
CONTINUOUS
 10
1.12862
 20
5.84394
 30
 0
 11
1.12598
 21
5.84665
  0
LINE
  8
Engraving
 62
   255
 39
0.008
  6
CONTINUOUS
 10
1.12598
 20
5.84665
 30
 0
 11
1.12303
 21
5.84890
  0
LINE
  8
Engraving
 62
   255
 39
0.008
  6
CONTINUOUS
 10
1.12303
 20
5.84890
 30
 0
 11
1.11980
 21
5.85059
  0
LINE
  8
Engraving
 62
   255
 39
0.008
  6
CONTINUOUS
 10
1.11980
 20
5.85059
 30
 0
 11
1.11638
 21
5.85177
  0
LINE
  8
Engraving
 62
   255
 39
0.008
  6
CONTINUOUS
 10
1.11638
 20
5.85177
 30
 0
 11
1.11283
 21
5.85236
  0
LINE
  8
Engraving
 62
   255
 39
0.008
  6
CONTINUOUS
 10
1.11283
 20
5.85236
 30
 0
 11
1.10929
 21
5.85236
  0
LINE
  8
Engraving
 62
   255
 39
0.008
  6
CONTINUOUS
 10
1.10929
 20
5.85236
 30
 0
 11
1.10575
 21
5.85177
  0
LINE
  8
Engraving
 62
   255
 39
0.008
  6
CONTINUOUS
 10
1.10575
 20
5.85177
 30
 0
 11
1.10232
 21
5.85059
  0
LINE
  8
Engraving
 62
   255
 39
0.008
  6
CONTINUOUS
 10
1.10232
 20
5.85059
 30
 0
 11
1.09913
 21
5.84890
  0
LINE
  8
Engraving
 62
   255
 39
0.008
  6
CONTINUOUS
 10
1.09913
 20
5.84890
 30
 0
 11
1.09614
 21
5.84665
  0
LINE
  8
Engraving
 62
   255
 39
0.008
  6
CONTINUOUS
 10
1.09614
 20
5.84665
 30
 0
 11
1.09354
 21
5.84394
  0
LINE
  8
Engraving
 62
   255
 39
0.008
  6
CONTINUOUS
 10
1.09354
 20
5.84394
 30
 0
 11
1.09130
 21
5.84083
  0
LINE
  8
Engraving
 62
   255
 39
0.008
  6
CONTINUOUS
 10
1.09130
 20
5.84083
 30
 0
 11
1.08953
 21
5.83740
  0
LINE
  8
Engraving
 62
   255
 39
0.008
  6
CONTINUOUS
 10
1.08953
 20
5.83740
 30
 0
 11
1.08823
 21
5.83370
  0
LINE
  8
Engraving
 62
   255
 39
0.008
  6
CONTINUOUS
 10
1.08823
 20
5.83370
 30
 0
 11
1.08744
 21
5.82984
  0
LINE
  8
Engraving
 62
   255
 39
0.008
  6
CONTINUOUS
 10
1.08744
 20
5.82984
 30
 0
 11
1.08717
 21
5.82587
  0
LINE
  8
Engraving
 62
   255
 39
0.008
  6
CONTINUOUS
 10
1.08717
 20
5.82587
 30
 0
 11
1.08717
 21
5.82587
  0
LINE
  8
Engraving
 62
   255
 39
0.008
  6
CONTINUOUS
 10
1.08717
 20
5.82587
 30
 0
 11
1.08717
 21
5.76091
  0
LINE
  8
Engraving
 62
   255
 39
0.008
  6
CONTINUOUS
 10
1.16512
 20
5.73433
 30
 0
 11
1.16512
 21
5.85244
  0
LINE
  8
Engraving
 62
   255
 39
0.008
  6
CONTINUOUS
 10
1.16512
 20
5.85244
 30
 0
 11
1.21295
 21
5.73433
  0
LINE
  8
Engraving
 62
   255
 39
0.008
  6
CONTINUOUS
 10
1.21295
 20
5.73433
 30
 0
 11
1.21295
 21
5.85244
  0
LINE
  8
Engraving
 62
   255
 39
0.008
  6
CONTINUOUS
 10
0.83331
 20
5.20614
 30
 0
 11
0.93173
 21
5.20614
  0
LINE
  8
Engraving
 62
   255
 39
0.008
  6
CONTINUOUS
 10
0.88252
 20
5.25535
 30
 0
 11
0.88252
 21
5.15693
  0
LINE
  8
Engraving
 62
   255
 39
0.008
  6
CONTINUOUS
 10
0.63646
 20
4.77992
 30
 0
 11
0.77421
 21
5.01858
  0
LINE
  8
Engraving
 62
   255
 39
0.008
  6
CONTINUOUS
 10
0.77421
 20
5.01858
 30
 0
 11
0.77425
 21
5.01858
  0
LINE
  8
Engraving
 62
   255
 39
0.008
  6
CONTINUOUS
 10
1.12858
 20
4.77992
 30
 0
 11
0.99079
 21
5.01858
  0
LINE
  8
Engraving
 62
   255
 39
0.008
  6
CONTINUOUS
 10
0.99079
 20
5.01858
 30
 0
 11
0.99079
 21
5.01858
  0
LINE
  8
Engraving
 62
   255
 39
0.008
  6
CONTINUOUS
 10
1.07004
 20
5.09783
 30
 0
 11
1.07004
 21
5.09783
  0
LINE
  8
Engraving
 62
   255
 39
0.008
  6
CONTINUOUS
 10
1.07004
 20
5.09783
 30
 0
 11
1.30870
 21
4.96004
  0
LINE
  8
Engraving
 62
   255
 39
0.008
  6
CONTINUOUS
 10
1.37465
 20
5.20614
 30
 0
 11
1.09906
 21
5.20614
  0
LINE
  8
Engraving
 62
   255
 39
0.008
  6
CONTINUOUS
 10
1.09906
 20
5.20614
 30
 0
 11
1.09906
 21
5.20614
  0
LINE
  8
Engraving
 62
   255
 39
0.008
  6
CONTINUOUS
 10
1.07004
 20
5.31441
 30
 0
 11
1.07004
 21
5.31441
  0
LINE
  8
Engraving
 62
   255
 39
0.008
  6
CONTINUOUS
 10
1.07004
 20
5.31441
 30
 0
 11
1.30870
 21
5.45220
  0
LINE
  8
Engraving
 62
   255
 39
0.008
  6
CONTINUOUS
 10
1.12854
 20
5.63232
 30
 0
 11
0.99079
 21
5.39366
  0
LINE
  8
Engraving
 62
   255
 39
0.008
  6
CONTINUOUS
 10
0.99079
 20
5.39366
 30
 0
 11
0.99075
 21
5.39366
  0
LINE
  8
Engraving
 62
   255
 39
0.008
  6
CONTINUOUS
 10
0.88252
 20
5.42268
 30
 0
 11
0.88252
 21
5.42268
  0
LINE
  8
Engraving
 62
   255
 39
0.008
  6
CONTINUOUS
 10
0.88252
 20
5.42268
 30
 0
 11
0.88252
 21
5.69827
  0
LINE
  8
Engraving
 62
   255
 39
0.008
  6
CONTINUOUS
 10
0.63646
 20
5.63232
 30
 0
 11
0.77425
 21
5.39366
  0
LINE
  8
Engraving
 62
   255
 39
0.008
  6
CONTINUOUS
 10
0.77425
 20
5.39366
 30
 0
 11
0.77425
 21
5.39366
  0
LINE
  8
Engraving
 62
   255
 39
0.008
  6
CONTINUOUS
 10
0.69496
 20
5.31437
 30
 0
 11
0.69496
 21
5.31441
  0
LINE
  8
Engraving
 62
   255
 39
0.008
  6
CONTINUOUS
 10
0.69496
 20
5.31441
 30
 0
 11
0.45630
 21
5.45217
  0
LINE
  8
Engraving
 62
   255
 39
0.008
  6
CONTINUOUS
 10
0.39039
 20
5.20614
 30
 0
 11
0.66598
 21
5.20614
  0
LINE
  8
Engraving
 62
   255
 39
0.008
  6
CONTINUOUS
 10
0.66598
 20
5.20614
 30
 0
 11
0.66598
 21
5.20614
  0
LINE
  8
Engraving
 62
   255
 39
0.008
  6
CONTINUOUS
 10
0.69496
 20
5.09787
 30
 0
 11
0.69496
 21
5.09787
  0
LINE
  8
Engraving
 62
   255
 39
0.008
  6
CONTINUOUS
 10
0.69496
 20
5.09787
 30
 0
 11
0.45630
 21
4.96008
  0
LINE
  8
Engraving
 62
   255
 39
0.008
  6
CONTINUOUS
 10
2.43646
 20
5.85244
 30
 0
 11
2.43646
 21
5.73433
  0
LINE
  8
Engraving
 62
   255
 39
0.008
  6
CONTINUOUS
 10
2.43646
 20
5.73433
 30
 0
 11
2.47098
 21
5.73433
  0
LINE
  8
Engraving
 62
   255
 39
0.008
  6
CONTINUOUS
 10
2.54894
 20
5.85244
 30
 0
 11
2.50110
 21
5.85244
  0
LINE
  8
Engraving
 62
   255
 39
0.008
  6
CONTINUOUS
 10
2.50110
 20
5.85244
 30
 0
 11
2.50110
 21
5.73433
  0
LINE
  8
Engraving
 62
   255
 39
0.008
  6
CONTINUOUS
 10
2.50110
 20
5.73433
 30
 0
 11
2.54894
 21
5.73433
  0
LINE
  8
Engraving
 62
   255
 39
0.008
  6
CONTINUOUS
 10
2.50110
 20
5.79339
 30
 0
 11
2.54098
 21
5.79339
  0
LINE
  8
Engraving
 62
   255
 39
0.008
  6
CONTINUOUS
 10
2.57906
 20
5.85244
 30
 0
 11
2.60299
 21
5.73433
  0
LINE
  8
Engraving
 62
   255
 39
0.008
  6
CONTINUOUS
 10
2.60299
 20
5.73433
 30
 0
 11
2.62689
 21
5.85244
  0
LINE
  8
Engraving
 62
   255
 39
0.008
  6
CONTINUOUS
 10
2.70484
 20
5.85244
 30
 0
 11
2.65701
 21
5.85244
  0
LINE
  8
Engraving
 62
   255
 39
0.008
  6
CONTINUOUS
 10
2.65701
 20
5.85244
 30
 0
 11
2.65701
 21
5.73433
  0
LINE
  8
Engraving
 62
   255
 39
0.008
  6
CONTINUOUS
 10
2.65701
 20
5.73433
 30
 0
 11
2.70484
 21
5.73433
  0
LINE
  8
Engraving
 62
   255
 39
0.008
  6
CONTINUOUS
 10
2.65701
 20
5.79339
 30
 0
 11
2.69689
 21
5.79339
  0
LINE
  8
Engraving
 62
   255
 39
0.008
  6
CONTINUOUS
 10
2.73409
 20
5.85244
 30
 0
 11
2.73409
 21
5.73433
  0
LINE
  8
Engraving
 62
   255
 39
0.008
  6
CONTINUOUS
 10
2.73409
 20
5.73433
 30
 0
 11
2.76862
 21
5.73433
  0
LINE
  8
Engraving
 62
   255
 39
0.008
  6
CONTINUOUS
 10
2.55331
 20
5.20614
 30
 0
 11
2.65173
 21
5.20614
  0
LINE
  8
Engraving
 62
   255
 39
0.008
  6
CONTINUOUS
 10
2.60252
 20
5.25535
 30
 0
 11
2.60252
 21
5.15693
  0
LINE
  8
Engraving
 62
   255
 39
0.008
  6
CONTINUOUS
 10
2.35646
 20
4.77992
 30
 0
 11
2.49421
 21
5.01858
  0
LINE
  8
Engraving
 62
   255
 39
0.008
  6
CONTINUOUS
 10
2.49421
 20
5.01858
 30
 0
 11
2.49425
 21
5.01858
  0
LINE
  8
Engraving
 62
   255
 39
0.008
  6
CONTINUOUS
 10
2.84858
 20
4.77992
 30
 0
 11
2.71079
 21
5.01858
  0
LINE
  8
Engraving
 62
   255
 39
0.008
  6
CONTINUOUS
 10
2.71079
 20
5.01858
 30
 0
 11
2.71079
 21
5.01858
  0
LINE
  8
Engraving
 62
   255
 39
0.008
  6
CONTINUOUS
 10
2.79004
 20
5.09783
 30
 0
 11
2.79004
 21
5.09783
  0
LINE
  8
Engraving
 62
   255
 39
0.008
  6
CONTINUOUS
 10
2.79004
 20
5.09783
 30
 0
 11
3.02870
 21
4.96004
  0
LINE
  8
Engraving
 62
   255
 39
0.008
  6
CONTINUOUS
 10
3.09465
 20
5.20614
 30
 0
 11
2.81906
 21
5.20614
  0
LINE
  8
Engraving
 62
   255
 39
0.008
  6
CONTINUOUS
 10
2.81906
 20
5.20614
 30
 0
 11
2.81906
 21
5.20614
  0
LINE
  8
Engraving
 62
   255
 39
0.008
  6
CONTINUOUS
 10
2.79004
 20
5.31441
 30
 0
 11
2.79004
 21
5.31441
  0
LINE
  8
Engraving
 62
   255
 39
0.008
  6
CONTINUOUS
 10
2.79004
 20
5.31441
 30
 0
 11
3.02870
 21
5.45220
  0
LINE
  8
Engraving
 62
   255
 39
0.008
  6
CONTINUOUS
 10
2.84854
 20
5.63232
 30
 0
 11
2.71079
 21
5.39366
  0
LINE
  8
Engraving
 62
   255
 39
0.008
  6
CONTINUOUS
 10
2.71079
 20
5.39366
 30
 0
 11
2.71075
 21
5.39366
  0
LINE
  8
Engraving
 62
   255
 39
0.008
  6
CONTINUOUS
 10
2.60252
 20
5.42268
 30
 0
 11
2.60252
 21
5.42268
  0
LINE
  8
Engraving
 62
   255
 39
0.008
  6
CONTINUOUS
 10
2.60252
 20
5.42268
 30
 0
 11
2.60252
 21
5.69827
  0
LINE
  8
Engraving
 62
   255
 39
0.008
  6
CONTINUOUS
 10
2.35646
 20
5.63232
 30
 0
 11
2.49425
 21
5.39366
  0
LINE
  8
Engraving
 62
   255
 39
0.008
  6
CONTINUOUS
 10
2.49425
 20
5.39366
 30
 0
 11
2.49425
 21
5.39366
  0
LINE
  8
Engraving
 62
   255
 39
0.008
  6
CONTINUOUS
 10
2.41496
 20
5.31437
 30
 0
 11
2.41496
 21
5.31441
  0
LINE
  8
Engraving
 62
   255
 39
0.008
  6
CONTINUOUS
 10
2.41496
 20
5.31441
 30
 0
 11
2.17630
 21
5.45217
  0
LINE
  8
Engraving
 62
   255
 39
0.008
  6
CONTINUOUS
 10
2.11039
 20
5.20614
 30
 0
 11
2.38598
 21
5.20614
  0
LINE
  8
Engraving
 62
   255
 39
0.008
  6
CONTINUOUS
 10
2.38598
 20
5.20614
 30
 0
 11
2.38598
 21
5.20614
  0
LINE
  8
Engraving
 62
   255
 39
0.008
  6
CONTINUOUS
 10
2.41496
 20
5.09787
 30
 0
 11
2.41496
 21
5.09787
  0
LINE
  8
Engraving
 62
   255
 39
0.008
  6
CONTINUOUS
 10
2.41496
 20
5.09787
 30
 0
 11
2.17630
 21
4.96008
  0
LINE
  8
Engraving
 62
   255
 39
0.008
  6
CONTINUOUS
 10
0.72394
 20
4.42413
 30
 0
 11
0.72394
 21
4.54224
  0
LINE
  8
Engraving
 62
   255
 39
0.008
  6
CONTINUOUS
 10
0.72394
 20
4.54224
 30
 0
 11
0.77177
 21
4.42413
  0
LINE
  8
Engraving
 62
   255
 39
0.008
  6
CONTINUOUS
 10
0.77177
 20
4.42413
 30
 0
 11
0.77177
 21
4.54224
  0
LINE
  8
Engraving
 62
   255
 39
0.008
  6
CONTINUOUS
 10
0.80189
 20
4.45071
 30
 0
 11
0.80220
 21
4.44673
  0
LINE
  8
Engraving
 62
   255
 39
0.008
  6
CONTINUOUS
 10
0.80220
 20
4.44673
 30
 0
 11
0.80295
 21
4.44287
  0
LINE
  8
Engraving
 62
   255
 39
0.008
  6
CONTINUOUS
 10
0.80295
 20
4.44287
 30
 0
 11
0.80429
 21
4.43917
  0
LINE
  8
Engraving
 62
   255
 39
0.008
  6
CONTINUOUS
 10
0.80429
 20
4.43917
 30
 0
 11
0.80606
 21
4.43575
  0
LINE
  8
Engraving
 62
   255
 39
0.008
  6
CONTINUOUS
 10
0.80606
 20
4.43575
 30
 0
 11
0.80827
 21
4.43264
  0
LINE
  8
Engraving
 62
   255
 39
0.008
  6
CONTINUOUS
 10
0.80827
 20
4.43264
 30
 0
 11
0.81091
 21
4.42992
  0
LINE
  8
Engraving
 62
   255
 39
0.008
  6
CONTINUOUS
 10
0.81091
 20
4.42992
 30
 0
 11
0.81390
 21
4.42768
  0
LINE
  8
Engraving
 62
   255
 39
0.008
  6
CONTINUOUS
 10
0.81390
 20
4.42768
 30
 0
 11
0.81709
 21
4.42598
  0
LINE
  8
Engraving
 62
   255
 39
0.008
  6
CONTINUOUS
 10
0.81709
 20
4.42598
 30
 0
 11
0.82051
 21
4.42480
  0
LINE
  8
Engraving
 62
   255
 39
0.008
  6
CONTINUOUS
 10
0.82051
 20
4.42480
 30
 0
 11
0.82406
 21
4.42421
  0
LINE
  8
Engraving
 62
   255
 39
0.008
  6
CONTINUOUS
 10
0.82406
 20
4.42421
 30
 0
 11
0.82760
 21
4.42421
  0
LINE
  8
Engraving
 62
   255
 39
0.008
  6
CONTINUOUS
 10
0.82760
 20
4.42421
 30
 0
 11
0.83114
 21
4.42480
  0
LINE
  8
Engraving
 62
   255
 39
0.008
  6
CONTINUOUS
 10
0.83114
 20
4.42480
 30
 0
 11
0.83457
 21
4.42598
  0
LINE
  8
Engraving
 62
   255
 39
0.008
  6
CONTINUOUS
 10
0.83457
 20
4.42598
 30
 0
 11
0.83780
 21
4.42768
  0
LINE
  8
Engraving
 62
   255
 39
0.008
  6
CONTINUOUS
 10
0.83780
 20
4.42768
 30
 0
 11
0.84075
 21
4.42992
  0
LINE
  8
Engraving
 62
   255
 39
0.008
  6
CONTINUOUS
 10
0.84075
 20
4.42992
 30
 0
 11
0.84335
 21
4.43264
  0
LINE
  8
Engraving
 62
   255
 39
0.008
  6
CONTINUOUS
 10
0.84335
 20
4.43264
 30
 0
 11
0.84559
 21
4.43575
  0
LINE
  8
Engraving
 62
   255
 39
0.008
  6
CONTINUOUS
 10
0.84559
 20
4.43575
 30
 0
 11
0.84736
 21
4.43917
  0
LINE
  8
Engraving
 62
   255
 39
0.008
  6
CONTINUOUS
 10
0.84736
 20
4.43917
 30
 0
 11
0.84866
 21
4.44287
  0
LINE
  8
Engraving
 62
   255
 39
0.008
  6
CONTINUOUS
 10
0.84866
 20
4.44287
 30
 0
 11
0.84945
 21
4.44673
  0
LINE
  8
Engraving
 62
   255
 39
0.008
  6
CONTINUOUS
 10
0.84945
 20
4.44673
 30
 0
 11
0.84972
 21
4.45071
  0
LINE
  8
Engraving
 62
   255
 39
0.008
  6
CONTINUOUS
 10
0.84972
 20
4.45071
 30
 0
 11
0.84972
 21
4.45071
  0
LINE
  8
Engraving
 62
   255
 39
0.008
  6
CONTINUOUS
 10
0.84972
 20
4.45071
 30
 0
 11
0.84972
 21
4.51567
  0
LINE
  8
Engraving
 62
   255
 39
0.008
  6
CONTINUOUS
 10
0.84972
 20
4.51567
 30
 0
 11
0.84945
 21
4.51965
  0
LINE
  8
Engraving
 62
   255
 39
0.008
  6
CONTINUOUS
 10
0.84945
 20
4.51965
 30
 0
 11
0.84866
 21
4.52350
  0
LINE
  8
Engraving
 62
   255
 39
0.008
  6
CONTINUOUS
 10
0.84866
 20
4.52350
 30
 0
 11
0.84736
 21
4.52720
  0
LINE
  8
Engraving
 62
   255
 39
0.008
  6
CONTINUOUS
 10
0.84736
 20
4.52720
 30
 0
 11
0.84559
 21
4.53063
  0
LINE
  8
Engraving
 62
   255
 39
0.008
  6
CONTINUOUS
 10
0.84559
 20
4.53063
 30
 0
 11
0.84335
 21
4.53374
  0
LINE
  8
Engraving
 62
   255
 39
0.008
  6
CONTINUOUS
 10
0.84335
 20
4.53374
 30
 0
 11
0.84075
 21
4.53646
  0
LINE
  8
Engraving
 62
   255
 39
0.008
  6
CONTINUOUS
 10
0.84075
 20
4.53646
 30
 0
 11
0.83780
 21
4.53870
  0
LINE
  8
Engraving
 62
   255
 39
0.008
  6
CONTINUOUS
 10
0.83780
 20
4.53870
 30
 0
 11
0.83457
 21
4.54039
  0
LINE
  8
Engraving
 62
   255
 39
0.008
  6
CONTINUOUS
 10
0.83457
 20
4.54039
 30
 0
 11
0.83114
 21
4.54157
  0
LINE
  8
Engraving
 62
   255
 39
0.008
  6
CONTINUOUS
 10
0.83114
 20
4.54157
 30
 0
 11
0.82760
 21
4.54217
  0
LINE
  8
Engraving
 62
   255
 39
0.008
  6
CONTINUOUS
 10
0.82760
 20
4.54217
 30
 0
 11
0.82406
 21
4.54217
  0
LINE
  8
Engraving
 62
   255
 39
0.008
  6
CONTINUOUS
 10
0.82406
 20
4.54217
 30
 0
 11
0.82051
 21
4.54157
  0
LINE
  8
Engraving
 62
   255
 39
0.008
  6
CONTINUOUS
 10
0.82051
 20
4.54157
 30
 0
 11
0.81709
 21
4.54039
  0
LINE
  8
Engraving
 62
   255
 39
0.008
  6
CONTINUOUS
 10
0.81709
 20
4.54039
 30
 0
 11
0.81390
 21
4.53870
  0
LINE
  8
Engraving
 62
   255
 39
0.008
  6
CONTINUOUS
 10
0.81390
 20
4.53870
 30
 0
 11
0.81091
 21
4.53646
  0
LINE
  8
Engraving
 62
   255
 39
0.008
  6
CONTINUOUS
 10
0.81091
 20
4.53646
 30
 0
 11
0.80827
 21
4.53374
  0
LINE
  8
Engraving
 62
   255
 39
0.008
  6
CONTINUOUS
 10
0.80827
 20
4.53374
 30
 0
 11
0.80606
 21
4.53063
  0
LINE
  8
Engraving
 62
   255
 39
0.008
  6
CONTINUOUS
 10
0.80606
 20
4.53063
 30
 0
 11
0.80429
 21
4.52720
  0
LINE
  8
Engraving
 62
   255
 39
0.008
  6
CONTINUOUS
 10
0.80429
 20
4.52720
 30
 0
 11
0.80295
 21
4.52350
  0
LINE
  8
Engraving
 62
   255
 39
0.008
  6
CONTINUOUS
 10
0.80295
 20
4.52350
 30
 0
 11
0.80220
 21
4.51965
  0
LINE
  8
Engraving
 62
   255
 39
0.008
  6
CONTINUOUS
 10
0.80220
 20
4.51965
 30
 0
 11
0.80189
 21
4.51567
  0
LINE
  8
Engraving
 62
   255
 39
0.008
  6
CONTINUOUS
 10
0.80189
 20
4.51567
 30
 0
 11
0.80189
 21
4.51567
  0
LINE
  8
Engraving
 62
   255
 39
0.008
  6
CONTINUOUS
 10
0.80189
 20
4.51567
 30
 0
 11
0.80189
 21
4.45071
  0
LINE
  8
Engraving
 62
   255
 39
0.008
  6
CONTINUOUS
 10
0.87984
 20
4.54224
 30
 0
 11
0.87984
 21
4.42413
  0
LINE
  8
Engraving
 62
   255
 39
0.008
  6
CONTINUOUS
 10
0.91000
 20
4.45366
 30
 0
 11
0.91028
 21
4.44925
  0
LINE
  8
Engraving
 62
   255
 39
0.008
  6
CONTINUOUS
 10
0.91028
 20
4.44925
 30
 0
 11
0.91114
 21
4.44496
  0
LINE
  8
Engraving
 62
   255
 39
0.008
  6
CONTINUOUS
 10
0.91114
 20
4.44496
 30
 0
 11
0.91260
 21
4.44087
  0
LINE
  8
Engraving
 62
   255
 39
0.008
  6
CONTINUOUS
 10
0.91260
 20
4.44087
 30
 0
 11
0.91461
 21
4.43705
  0
LINE
  8
Engraving
 62
   255
 39
0.008
  6
CONTINUOUS
 10
0.91461
 20
4.43705
 30
 0
 11
0.91709
 21
4.43358
  0
LINE
  8
Engraving
 62
   255
 39
0.008
  6
CONTINUOUS
 10
0.91709
 20
4.43358
 30
 0
 11
0.91996
 21
4.43059
  0
LINE
  8
Engraving
 62
   255
 39
0.008
  6
CONTINUOUS
 10
0.91996
 20
4.43059
 30
 0
 11
0.92327
 21
4.42807
  0
LINE
  8
Engraving
 62
   255
 39
0.008
  6
CONTINUOUS
 10
0.92327
 20
4.42807
 30
 0
 11
0.92685
 21
4.42618
  0
LINE
  8
Engraving
 62
   255
 39
0.008
  6
CONTINUOUS
 10
0.92685
 20
4.42618
 30
 0
 11
0.93063
 21
4.42488
  0
LINE
  8
Engraving
 62
   255
 39
0.008
  6
CONTINUOUS
 10
0.93063
 20
4.42488
 30
 0
 11
0.93457
 21
4.42421
  0
LINE
  8
Engraving
 62
   255
 39
0.008
  6
CONTINUOUS
 10
0.93457
 20
4.42421
 30
 0
 11
0.93854
 21
4.42421
  0
LINE
  8
Engraving
 62
   255
 39
0.008
  6
CONTINUOUS
 10
0.93854
 20
4.42421
 30
 0
 11
0.94248
 21
4.42488
  0
LINE
  8
Engraving
 62
   255
 39
0.008
  6
CONTINUOUS
 10
0.94248
 20
4.42488
 30
 0
 11
0.94626
 21
4.42618
  0
LINE
  8
Engraving
 62
   255
 39
0.008
  6
CONTINUOUS
 10
0.94626
 20
4.42618
 30
 0
 11
0.94984
 21
4.42807
  0
LINE
  8
Engraving
 62
   255
 39
0.008
  6
CONTINUOUS
 10
0.94984
 20
4.42807
 30
 0
 11
0.95315
 21
4.43059
  0
LINE
  8
Engraving
 62
   255
 39
0.008
  6
CONTINUOUS
 10
0.95315
 20
4.43059
 30
 0
 11
0.95606
 21
4.43358
  0
LINE
  8
Engraving
 62
   255
 39
0.008
  6
CONTINUOUS
 10
0.95606
 20
4.43358
 30
 0
 11
0.95854
 21
4.43705
  0
LINE
  8
Engraving
 62
   255
 39
0.008
  6
CONTINUOUS
 10
0.95854
 20
4.43705
 30
 0
 11
0.96051
 21
4.44087
  0
LINE
  8
Engraving
 62
   255
 39
0.008
  6
CONTINUOUS
 10
0.96051
 20
4.44087
 30
 0
 11
0.96197
 21
4.44496
  0
LINE
  8
Engraving
 62
   255
 39
0.008
  6
CONTINUOUS
 10
0.96197
 20
4.44496
 30
 0
 11
0.96283
 21
4.44925
  0
LINE
  8
Engraving
 62
   255
 39
0.008
  6
CONTINUOUS
 10
0.96283
 20
4.44925
 30
 0
 11
0.96315
 21
4.45366
  0
LINE
  8
Engraving
 62
   255
 39
0.008
  6
CONTINUOUS
 10
0.96315
 20
4.45366
 30
 0
 11
0.96315
 21
4.45366
  0
LINE
  8
Engraving
 62
   255
 39
0.008
  6
CONTINUOUS
 10
0.96315
 20
4.45366
 30
 0
 11
0.96287
 21
4.45787
  0
LINE
  8
Engraving
 62
   255
 39
0.008
  6
CONTINUOUS
 10
0.96287
 20
4.45787
 30
 0
 11
0.96209
 21
4.46201
  0
LINE
  8
Engraving
 62
   255
 39
0.008
  6
CONTINUOUS
 10
0.96209
 20
4.46201
 30
 0
 11
0.96075
 21
4.46594
  0
LINE
  8
Engraving
 62
   255
 39
0.008
  6
CONTINUOUS
 10
0.96075
 20
4.46594
 30
 0
 11
0.95894
 21
4.46965
  0
LINE
  8
Engraving
 62
   255
 39
0.008
  6
CONTINUOUS
 10
0.95894
 20
4.46965
 30
 0
 11
0.95669
 21
4.47303
  0
LINE
  8
Engraving
 62
   255
 39
0.008
  6
CONTINUOUS
 10
0.95669
 20
4.47303
 30
 0
 11
0.95398
 21
4.47602
  0
LINE
  8
Engraving
 62
   255
 39
0.008
  6
CONTINUOUS
 10
0.95398
 20
4.47602
 30
 0
 11
0.95094
 21
4.47854
  0
LINE
  8
Engraving
 62
   255
 39
0.008
  6
CONTINUOUS
 10
0.95094
 20
4.47854
 30
 0
 11
0.94760
 21
4.48055
  0
LINE
  8
Engraving
 62
   255
 39
0.008
  6
CONTINUOUS
 10
0.94760
 20
4.48055
 30
 0
 11
0.94406
 21
4.48205
  0
LINE
  8
Engraving
 62
   255
 39
0.008
  6
CONTINUOUS
 10
0.94406
 20
4.48205
 30
 0
 11
0.94035
 21
4.48291
  0
LINE
  8
Engraving
 62
   255
 39
0.008
  6
CONTINUOUS
 10
0.94035
 20
4.48291
 30
 0
 11
0.93657
 21
4.48319
  0
LINE
  8
Engraving
 62
   255
 39
0.008
  6
CONTINUOUS
 10
0.93657
 20
4.48319
 30
 0
 11
0.93657
 21
4.48319
  0
LINE
  8
Engraving
 62
   255
 39
0.008
  6
CONTINUOUS
 10
0.93657
 20
4.48319
 30
 0
 11
0.93260
 21
4.48350
  0
LINE
  8
Engraving
 62
   255
 39
0.008
  6
CONTINUOUS
 10
0.93260
 20
4.48350
 30
 0
 11
0.92874
 21
4.48449
  0
LINE
  8
Engraving
 62
   255
 39
0.008
  6
CONTINUOUS
 10
0.92874
 20
4.48449
 30
 0
 11
0.92504
 21
4.48610
  0
LINE
  8
Engraving
 62
   255
 39
0.008
  6
CONTINUOUS
 10
0.92504
 20
4.48610
 30
 0
 11
0.92161
 21
4.48831
  0
LINE
  8
Engraving
 62
   255
 39
0.008
  6
CONTINUOUS
 10
0.92161
 20
4.48831
 30
 0
 11
0.91850
 21
4.49106
  0
LINE
  8
Engraving
 62
   255
 39
0.008
  6
CONTINUOUS
 10
0.91850
 20
4.49106
 30
 0
 11
0.91579
 21
4.49429
  0
LINE
  8
Engraving
 62
   255
 39
0.008
  6
CONTINUOUS
 10
0.91579
 20
4.49429
 30
 0
 11
0.91354
 21
4.49795
  0
LINE
  8
Engraving
 62
   255
 39
0.008
  6
CONTINUOUS
 10
0.91354
 20
4.49795
 30
 0
 11
0.91181
 21
4.50193
  0
LINE
  8
Engraving
 62
   255
 39
0.008
  6
CONTINUOUS
 10
0.91181
 20
4.50193
 30
 0
 11
0.91067
 21
4.50614
  0
LINE
  8
Engraving
 62
   255
 39
0.008
  6
CONTINUOUS
 10
0.91067
 20
4.50614
 30
 0
 11
0.91004
 21
4.51051
  0
LINE
  8
Engraving
 62
   255
 39
0.008
  6
CONTINUOUS
 10
0.91004
 20
4.51051
 30
 0
 11
0.91004
 21
4.51492
  0
LINE
  8
Engraving
 62
   255
 39
0.008
  6
CONTINUOUS
 10
0.91004
 20
4.51492
 30
 0
 11
0.91067
 21
4.51929
  0
LINE
  8
Engraving
 62
   255
 39
0.008
  6
CONTINUOUS
 10
0.91067
 20
4.51929
 30
 0
 11
0.91181
 21
4.52350
  0
LINE
  8
Engraving
 62
   255
 39
0.008
  6
CONTINUOUS
 10
0.91181
 20
4.52350
 30
 0
 11
0.91354
 21
4.52748
  0
LINE
  8
Engraving
 62
   255
 39
0.008
  6
CONTINUOUS
 10
0.91354
 20
4.52748
 30
 0
 11
0.91579
 21
4.53114
  0
LINE
  8
Engraving
 62
   255
 39
0.008
  6
CONTINUOUS
 10
0.91579
 20
4.53114
 30
 0
 11
0.91850
 21
4.53437
  0
LINE
  8
Engraving
 62
   255
 39
0.008
  6
CONTINUOUS
 10
0.91850
 20
4.53437
 30
 0
 11
0.92161
 21
4.53713
  0
LINE
  8
Engraving
 62
   255
 39
0.008
  6
CONTINUOUS
 10
0.92161
 20
4.53713
 30
 0
 11
0.92504
 21
4.53933
  0
LINE
  8
Engraving
 62
   255
 39
0.008
  6
CONTINUOUS
 10
0.92504
 20
4.53933
 30
 0
 11
0.92874
 21
4.54094
  0
LINE
  8
Engraving
 62
   255
 39
0.008
  6
CONTINUOUS
 10
0.92874
 20
4.54094
 30
 0
 11
0.93260
 21
4.54193
  0
LINE
  8
Engraving
 62
   255
 39
0.008
  6
CONTINUOUS
 10
0.93260
 20
4.54193
 30
 0
 11
0.93657
 21
4.54224
  0
LINE
  8
Engraving
 62
   255
 39
0.008
  6
CONTINUOUS
 10
0.93657
 20
4.54224
 30
 0
 11
0.93657
 21
4.54224
  0
LINE
  8
Engraving
 62
   255
 39
0.008
  6
CONTINUOUS
 10
0.93657
 20
4.54224
 30
 0
 11
0.94043
 21
4.54197
  0
LINE
  8
Engraving
 62
   255
 39
0.008
  6
CONTINUOUS
 10
0.94043
 20
4.54197
 30
 0
 11
0.94421
 21
4.54102
  0
LINE
  8
Engraving
 62
   255
 39
0.008
  6
CONTINUOUS
 10
0.94421
 20
4.54102
 30
 0
 11
0.94787
 21
4.53949
  0
LINE
  8
Engraving
 62
   255
 39
0.008
  6
CONTINUOUS
 10
0.94787
 20
4.53949
 30
 0
 11
0.95122
 21
4.53740
  0
LINE
  8
Engraving
 62
   255
 39
0.008
  6
CONTINUOUS
 10
0.95122
 20
4.53740
 30
 0
 11
0.95429
 21
4.53476
  0
LINE
  8
Engraving
 62
   255
 39
0.008
  6
CONTINUOUS
 10
0.95429
 20
4.53476
 30
 0
 11
0.95701
 21
4.53169
  0
LINE
  8
Engraving
 62
   255
 39
0.008
  6
CONTINUOUS
 10
0.95701
 20
4.53169
 30
 0
 11
0.95925
 21
4.52815
  0
LINE
  8
Engraving
 62
   255
 39
0.008
  6
CONTINUOUS
 10
0.95925
 20
4.52815
 30
 0
 11
0.96102
 21
4.52433
  0
LINE
  8
Engraving
 62
   255
 39
0.008
  6
CONTINUOUS
 10
0.96102
 20
4.52433
 30
 0
 11
0.96228
 21
4.52024
  0
LINE
  8
Engraving
 62
   255
 39
0.008
  6
CONTINUOUS
 10
0.96228
 20
4.52024
 30
 0
 11
0.96299
 21
4.51602
  0
LINE
  8
Engraving
 62
   255
 39
0.008
  6
CONTINUOUS
 10
0.96299
 20
4.51602
 30
 0
 11
0.96315
 21
4.51272
  0
LINE
  8
Engraving
 62
   255
 39
0.008
  6
CONTINUOUS
 10
1.04110
 20
4.54224
 30
 0
 11
0.99327
 21
4.54224
  0
LINE
  8
Engraving
 62
   255
 39
0.008
  6
CONTINUOUS
 10
0.99327
 20
4.54224
 30
 0
 11
0.99327
 21
4.42413
  0
LINE
  8
Engraving
 62
   255
 39
0.008
  6
CONTINUOUS
 10
0.99327
 20
4.42413
 30
 0
 11
1.04110
 21
4.42413
  0
LINE
  8
Engraving
 62
   255
 39
0.008
  6
CONTINUOUS
 10
0.99327
 20
4.48319
 30
 0
 11
1.03311
 21
4.48319
  0
LINE
  8
Engraving
 62
   255
 39
0.008
  6
CONTINUOUS
 10
0.83331
 20
3.89594
 30
 0
 11
0.93173
 21
3.89594
  0
LINE
  8
Engraving
 62
   255
 39
0.008
  6
CONTINUOUS
 10
0.88252
 20
3.94516
 30
 0
 11
0.88252
 21
3.84673
  0
LINE
  8
Engraving
 62
   255
 39
0.008
  6
CONTINUOUS
 10
0.63646
 20
3.46972
 30
 0
 11
0.77421
 21
3.70839
  0
LINE
  8
Engraving
 62
   255
 39
0.008
  6
CONTINUOUS
 10
0.77421
 20
3.70839
 30
 0
 11
0.77425
 21
3.70839
  0
LINE
  8
Engraving
 62
   255
 39
0.008
  6
CONTINUOUS
 10
1.12858
 20
3.46972
 30
 0
 11
0.99079
 21
3.70839
  0
LINE
  8
Engraving
 62
   255
 39
0.008
  6
CONTINUOUS
 10
0.99079
 20
3.70839
 30
 0
 11
0.99079
 21
3.70839
  0
LINE
  8
Engraving
 62
   255
 39
0.008
  6
CONTINUOUS
 10
1.07004
 20
3.78764
 30
 0
 11
1.07004
 21
3.78764
  0
LINE
  8
Engraving
 62
   255
 39
0.008
  6
CONTINUOUS
 10
1.07004
 20
3.78764
 30
 0
 11
1.30870
 21
3.64984
  0
LINE
  8
Engraving
 62
   255
 39
0.008
  6
CONTINUOUS
 10
1.37465
 20
3.89594
 30
 0
 11
1.09906
 21
3.89594
  0
LINE
  8
Engraving
 62
   255
 39
0.008
  6
CONTINUOUS
 10
1.09906
 20
3.89594
 30
 0
 11
1.09906
 21
3.89594
  0
LINE
  8
Engraving
 62
   255
 39
0.008
  6
CONTINUOUS
 10
1.07004
 20
4.00421
 30
 0
 11
1.07004
 21
4.00421
  0
LINE
  8
Engraving
 62
   255
 39
0.008
  6
CONTINUOUS
 10
1.07004
 20
4.00421
 30
 0
 11
1.30870
 21
4.14201
  0
LINE
  8
Engraving
 62
   255
 39
0.008
  6
CONTINUOUS
 10
1.12854
 20
4.32213
 30
 0
 11
0.99079
 21
4.08346
  0
LINE
  8
Engraving
 62
   255
 39
0.008
  6
CONTINUOUS
 10
0.99079
 20
4.08346
 30
 0
 11
0.99075
 21
4.08346
  0
LINE
  8
Engraving
 62
   255
 39
0.008
  6
CONTINUOUS
 10
0.88252
 20
4.11248
 30
 0
 11
0.88252
 21
4.11248
  0
LINE
  8
Engraving
 62
   255
 39
0.008
  6
CONTINUOUS
 10
0.88252
 20
4.11248
 30
 0
 11
0.88252
 21
4.38807
  0
LINE
  8
Engraving
 62
   255
 39
0.008
  6
CONTINUOUS
 10
0.63646
 20
4.32213
 30
 0
 11
0.77425
 21
4.08346
  0
LINE
  8
Engraving
 62
   255
 39
0.008
  6
CONTINUOUS
 10
0.77425
 20
4.08346
 30
 0
 11
0.77425
 21
4.08346
  0
LINE
  8
Engraving
 62
   255
 39
0.008
  6
CONTINUOUS
 10
0.69496
 20
4.00417
 30
 0
 11
0.69496
 21
4.00421
  0
LINE
  8
Engraving
 62
   255
 39
0.008
  6
CONTINUOUS
 10
0.69496
 20
4.00421
 30
 0
 11
0.45630
 21
4.14197
  0
LINE
  8
Engraving
 62
   255
 39
0.008
  6
CONTINUOUS
 10
0.39039
 20
3.89594
 30
 0
 11
0.66598
 21
3.89594
  0
LINE
  8
Engraving
 62
   255
 39
0.008
  6
CONTINUOUS
 10
0.66598
 20
3.89594
 30
 0
 11
0.66598
 21
3.89594
  0
LINE
  8
Engraving
 62
   255
 39
0.008
  6
CONTINUOUS
 10
0.69496
 20
3.78768
 30
 0
 11
0.69496
 21
3.78768
  0
LINE
  8
Engraving
 62
   255
 39
0.008
  6
CONTINUOUS
 10
0.69496
 20
3.78768
 30
 0
 11
0.45630
 21
3.64988
  0
LINE
  8
Engraving
 62
   255
 39
0.008
  6
CONTINUOUS
 10
0.32902
 20
1.33248
 30
 0
 11
0.32874
 21
1.33646
  0
LINE
  8
Engraving
 62
   255
 39
0.008
  6
CONTINUOUS
 10
0.32874
 20
1.33646
 30
 0
 11
0.32795
 21
1.34031
  0
LINE
  8
Engraving
 62
   255
 39
0.008
  6
CONTINUOUS
 10
0.32795
 20
1.34031
 30
 0
 11
0.32665
 21
1.34402
  0
LINE
  8
Engraving
 62
   255
 39
0.008
  6
CONTINUOUS
 10
0.32665
 20
1.34402
 30
 0
 11
0.32488
 21
1.34744
  0
LINE
  8
Engraving
 62
   255
 39
0.008
  6
CONTINUOUS
 10
0.32488
 20
1.34744
 30
 0
 11
0.32264
 21
1.35055
  0
LINE
  8
Engraving
 62
   255
 39
0.008
  6
CONTINUOUS
 10
0.32264
 20
1.35055
 30
 0
 11
0.32000
 21
1.35327
  0
LINE
  8
Engraving
 62
   255
 39
0.008
  6
CONTINUOUS
 10
0.32000
 20
1.35327
 30
 0
 11
0.31709
 21
1.35551
  0
LINE
  8
Engraving
 62
   255
 39
0.008
  6
CONTINUOUS
 10
0.31709
 20
1.35551
 30
 0
 11
0.31386
 21
1.35720
  0
LINE
  8
Engraving
 62
   255
 39
0.008
  6
CONTINUOUS
 10
0.31386
 20
1.35720
 30
 0
 11
0.31039
 21
1.35839
  0
LINE
  8
Engraving
 62
   255
 39
0.008
  6
CONTINUOUS
 10
0.31039
 20
1.35839
 30
 0
 11
0.30685
 21
1.35898
  0
LINE
  8
Engraving
 62
   255
 39
0.008
  6
CONTINUOUS
 10
0.30685
 20
1.35898
 30
 0
 11
0.30331
 21
1.35898
  0
LINE
  8
Engraving
 62
   255
 39
0.008
  6
CONTINUOUS
 10
0.30331
 20
1.35898
 30
 0
 11
0.29976
 21
1.35839
  0
LINE
  8
Engraving
 62
   255
 39
0.008
  6
CONTINUOUS
 10
0.29976
 20
1.35839
 30
 0
 11
0.29634
 21
1.35720
  0
LINE
  8
Engraving
 62
   255
 39
0.008
  6
CONTINUOUS
 10
0.29634
 20
1.35720
 30
 0
 11
0.29315
 21
1.35551
  0
LINE
  8
Engraving
 62
   255
 39
0.008
  6
CONTINUOUS
 10
0.29315
 20
1.35551
 30
 0
 11
0.29020
 21
1.35327
  0
LINE
  8
Engraving
 62
   255
 39
0.008
  6
CONTINUOUS
 10
0.29020
 20
1.35327
 30
 0
 11
0.28756
 21
1.35055
  0
LINE
  8
Engraving
 62
   255
 39
0.008
  6
CONTINUOUS
 10
0.28756
 20
1.35055
 30
 0
 11
0.28531
 21
1.34744
  0
LINE
  8
Engraving
 62
   255
 39
0.008
  6
CONTINUOUS
 10
0.28531
 20
1.34744
 30
 0
 11
0.28354
 21
1.34402
  0
LINE
  8
Engraving
 62
   255
 39
0.008
  6
CONTINUOUS
 10
0.28354
 20
1.34402
 30
 0
 11
0.28224
 21
1.34031
  0
LINE
  8
Engraving
 62
   255
 39
0.008
  6
CONTINUOUS
 10
0.28224
 20
1.34031
 30
 0
 11
0.28146
 21
1.33646
  0
LINE
  8
Engraving
 62
   255
 39
0.008
  6
CONTINUOUS
 10
0.28146
 20
1.33646
 30
 0
 11
0.28118
 21
1.33248
  0
LINE
  8
Engraving
 62
   255
 39
0.008
  6
CONTINUOUS
 10
0.28118
 20
1.33248
 30
 0
 11
0.28118
 21
1.33248
  0
LINE
  8
Engraving
 62
   255
 39
0.008
  6
CONTINUOUS
 10
0.28118
 20
1.33248
 30
 0
 11
0.28118
 21
1.26752
  0
LINE
  8
Engraving
 62
   255
 39
0.008
  6
CONTINUOUS
 10
0.28118
 20
1.26752
 30
 0
 11
0.28146
 21
1.26354
  0
LINE
  8
Engraving
 62
   255
 39
0.008
  6
CONTINUOUS
 10
0.28146
 20
1.26354
 30
 0
 11
0.28224
 21
1.25969
  0
LINE
  8
Engraving
 62
   255
 39
0.008
  6
CONTINUOUS
 10
0.28224
 20
1.25969
 30
 0
 11
0.28354
 21
1.25598
  0
LINE
  8
Engraving
 62
   255
 39
0.008
  6
CONTINUOUS
 10
0.28354
 20
1.25598
 30
 0
 11
0.28531
 21
1.25256
  0
LINE
  8
Engraving
 62
   255
 39
0.008
  6
CONTINUOUS
 10
0.28531
 20
1.25256
 30
 0
 11
0.28756
 21
1.24945
  0
LINE
  8
Engraving
 62
   255
 39
0.008
  6
CONTINUOUS
 10
0.28756
 20
1.24945
 30
 0
 11
0.29020
 21
1.24673
  0
LINE
  8
Engraving
 62
   255
 39
0.008
  6
CONTINUOUS
 10
0.29020
 20
1.24673
 30
 0
 11
0.29315
 21
1.24449
  0
LINE
  8
Engraving
 62
   255
 39
0.008
  6
CONTINUOUS
 10
0.29315
 20
1.24449
 30
 0
 11
0.29634
 21
1.24280
  0
LINE
  8
Engraving
 62
   255
 39
0.008
  6
CONTINUOUS
 10
0.29634
 20
1.24280
 30
 0
 11
0.29976
 21
1.24161
  0
LINE
  8
Engraving
 62
   255
 39
0.008
  6
CONTINUOUS
 10
0.29976
 20
1.24161
 30
 0
 11
0.30331
 21
1.24102
  0
LINE
  8
Engraving
 62
   255
 39
0.008
  6
CONTINUOUS
 10
0.30331
 20
1.24102
 30
 0
 11
0.30685
 21
1.24102
  0
LINE
  8
Engraving
 62
   255
 39
0.008
  6
CONTINUOUS
 10
0.30685
 20
1.24102
 30
 0
 11
0.31039
 21
1.24161
  0
LINE
  8
Engraving
 62
   255
 39
0.008
  6
CONTINUOUS
 10
0.31039
 20
1.24161
 30
 0
 11
0.31386
 21
1.24280
  0
LINE
  8
Engraving
 62
   255
 39
0.008
  6
CONTINUOUS
 10
0.31386
 20
1.24280
 30
 0
 11
0.31705
 21
1.24449
  0
LINE
  8
Engraving
 62
   255
 39
0.008
  6
CONTINUOUS
 10
0.31705
 20
1.24449
 30
 0
 11
0.32000
 21
1.24673
  0
LINE
  8
Engraving
 62
   255
 39
0.008
  6
CONTINUOUS
 10
0.32000
 20
1.24673
 30
 0
 11
0.32264
 21
1.24945
  0
LINE
  8
Engraving
 62
   255
 39
0.008
  6
CONTINUOUS
 10
0.32264
 20
1.24945
 30
 0
 11
0.32488
 21
1.25256
  0
LINE
  8
Engraving
 62
   255
 39
0.008
  6
CONTINUOUS
 10
0.32488
 20
1.25256
 30
 0
 11
0.32665
 21
1.25598
  0
LINE
  8
Engraving
 62
   255
 39
0.008
  6
CONTINUOUS
 10
0.32665
 20
1.25598
 30
 0
 11
0.32795
 21
1.25969
  0
LINE
  8
Engraving
 62
   255
 39
0.008
  6
CONTINUOUS
 10
0.32795
 20
1.25969
 30
 0
 11
0.32874
 21
1.26354
  0
LINE
  8
Engraving
 62
   255
 39
0.008
  6
CONTINUOUS
 10
0.32874
 20
1.26354
 30
 0
 11
0.32902
 21
1.26752
  0
LINE
  8
Engraving
 62
   255
 39
0.008
  6
CONTINUOUS
 10
0.32902
 20
1.26752
 30
 0
 11
0.32902
 21
1.26752
  0
LINE
  8
Engraving
 62
   255
 39
0.008
  6
CONTINUOUS
 10
0.32902
 20
1.26752
 30
 0
 11
0.32902
 21
1.29705
  0
LINE
  8
Engraving
 62
   255
 39
0.008
  6
CONTINUOUS
 10
0.32902
 20
1.29705
 30
 0
 11
0.30508
 21
1.29705
  0
LINE
  8
Engraving
 62
   255
 39
0.008
  6
CONTINUOUS
 10
0.35913
 20
1.24094
 30
 0
 11
0.39102
 21
1.35906
  0
LINE
  8
Engraving
 62
   255
 39
0.008
  6
CONTINUOUS
 10
0.39102
 20
1.35906
 30
 0
 11
0.42291
 21
1.24094
  0
LINE
  8
Engraving
 62
   255
 39
0.008
  6
CONTINUOUS
 10
0.36976
 20
1.27638
 30
 0
 11
0.41228
 21
1.27638
  0
LINE
  8
Engraving
 62
   255
 39
0.008
  6
CONTINUOUS
 10
0.45303
 20
1.35906
 30
 0
 11
0.50087
 21
1.35906
  0
LINE
  8
Engraving
 62
   255
 39
0.008
  6
CONTINUOUS
 10
0.50087
 20
1.35906
 30
 0
 11
0.47697
 21
1.35906
  0
LINE
  8
Engraving
 62
   255
 39
0.008
  6
CONTINUOUS
 10
0.47697
 20
1.35906
 30
 0
 11
0.47697
 21
1.24094
  0
LINE
  8
Engraving
 62
   255
 39
0.008
  6
CONTINUOUS
 10
0.57882
 20
1.35906
 30
 0
 11
0.53098
 21
1.35906
  0
LINE
  8
Engraving
 62
   255
 39
0.008
  6
CONTINUOUS
 10
0.53098
 20
1.35906
 30
 0
 11
0.53098
 21
1.24094
  0
LINE
  8
Engraving
 62
   255
 39
0.008
  6
CONTINUOUS
 10
0.53098
 20
1.24094
 30
 0
 11
0.57882
 21
1.24094
  0
LINE
  8
Engraving
 62
   255
 39
0.008
  6
CONTINUOUS
 10
0.53098
 20
1.30000
 30
 0
 11
0.57087
 21
1.30000
  0
LINE
  8
Engraving
 62
   255
 39
0.008
  6
CONTINUOUS
 10
2.02146
 20
1.24094
 30
 0
 11
2.02146
 21
1.35906
  0
LINE
  8
Engraving
 62
   255
 39
0.008
  6
CONTINUOUS
 10
2.02146
 20
1.35906
 30
 0
 11
2.06929
 21
1.24094
  0
LINE
  8
Engraving
 62
   255
 39
0.008
  6
CONTINUOUS
 10
2.06929
 20
1.24094
 30
 0
 11
2.06929
 21
1.35906
  0
LINE
  8
Engraving
 62
   255
 39
0.008
  6
CONTINUOUS
 10
2.09941
 20
1.26752
 30
 0
 11
2.09972
 21
1.26354
  0
LINE
  8
Engraving
 62
   255
 39
0.008
  6
CONTINUOUS
 10
2.09972
 20
1.26354
 30
 0
 11
2.10047
 21
1.25969
  0
LINE
  8
Engraving
 62
   255
 39
0.008
  6
CONTINUOUS
 10
2.10047
 20
1.25969
 30
 0
 11
2.10181
 21
1.25598
  0
LINE
  8
Engraving
 62
   255
 39
0.008
  6
CONTINUOUS
 10
2.10181
 20
1.25598
 30
 0
 11
2.10358
 21
1.25256
  0
LINE
  8
Engraving
 62
   255
 39
0.008
  6
CONTINUOUS
 10
2.10358
 20
1.25256
 30
 0
 11
2.10579
 21
1.24945
  0
LINE
  8
Engraving
 62
   255
 39
0.008
  6
CONTINUOUS
 10
2.10579
 20
1.24945
 30
 0
 11
2.10843
 21
1.24673
  0
LINE
  8
Engraving
 62
   255
 39
0.008
  6
CONTINUOUS
 10
2.10843
 20
1.24673
 30
 0
 11
2.11142
 21
1.24449
  0
LINE
  8
Engraving
 62
   255
 39
0.008
  6
CONTINUOUS
 10
2.11142
 20
1.24449
 30
 0
 11
2.11461
 21
1.24280
  0
LINE
  8
Engraving
 62
   255
 39
0.008
  6
CONTINUOUS
 10
2.11461
 20
1.24280
 30
 0
 11
2.11803
 21
1.24161
  0
LINE
  8
Engraving
 62
   255
 39
0.008
  6
CONTINUOUS
 10
2.11803
 20
1.24161
 30
 0
 11
2.12157
 21
1.24102
  0
LINE
  8
Engraving
 62
   255
 39
0.008
  6
CONTINUOUS
 10
2.12157
 20
1.24102
 30
 0
 11
2.12512
 21
1.24102
  0
LINE
  8
Engraving
 62
   255
 39
0.008
  6
CONTINUOUS
 10
2.12512
 20
1.24102
 30
 0
 11
2.12866
 21
1.24161
  0
LINE
  8
Engraving
 62
   255
 39
0.008
  6
CONTINUOUS
 10
2.12866
 20
1.24161
 30
 0
 11
2.13209
 21
1.24280
  0
LINE
  8
Engraving
 62
   255
 39
0.008
  6
CONTINUOUS
 10
2.13209
 20
1.24280
 30
 0
 11
2.13531
 21
1.24449
  0
LINE
  8
Engraving
 62
   255
 39
0.008
  6
CONTINUOUS
 10
2.13531
 20
1.24449
 30
 0
 11
2.13827
 21
1.24673
  0
LINE
  8
Engraving
 62
   255
 39
0.008
  6
CONTINUOUS
 10
2.13827
 20
1.24673
 30
 0
 11
2.14087
 21
1.24945
  0
LINE
  8
Engraving
 62
   255
 39
0.008
  6
CONTINUOUS
 10
2.14087
 20
1.24945
 30
 0
 11
2.14311
 21
1.25256
  0
LINE
  8
Engraving
 62
   255
 39
0.008
  6
CONTINUOUS
 10
2.14311
 20
1.25256
 30
 0
 11
2.14488
 21
1.25598
  0
LINE
  8
Engraving
 62
   255
 39
0.008
  6
CONTINUOUS
 10
2.14488
 20
1.25598
 30
 0
 11
2.14618
 21
1.25969
  0
LINE
  8
Engraving
 62
   255
 39
0.008
  6
CONTINUOUS
 10
2.14618
 20
1.25969
 30
 0
 11
2.14697
 21
1.26354
  0
LINE
  8
Engraving
 62
   255
 39
0.008
  6
CONTINUOUS
 10
2.14697
 20
1.26354
 30
 0
 11
2.14724
 21
1.26752
  0
LINE
  8
Engraving
 62
   255
 39
0.008
  6
CONTINUOUS
 10
2.14724
 20
1.26752
 30
 0
 11
2.14724
 21
1.26752
  0
LINE
  8
Engraving
 62
   255
 39
0.008
  6
CONTINUOUS
 10
2.14724
 20
1.26752
 30
 0
 11
2.14724
 21
1.33248
  0
LINE
  8
Engraving
 62
   255
 39
0.008
  6
CONTINUOUS
 10
2.14724
 20
1.33248
 30
 0
 11
2.14697
 21
1.33646
  0
LINE
  8
Engraving
 62
   255
 39
0.008
  6
CONTINUOUS
 10
2.14697
 20
1.33646
 30
 0
 11
2.14618
 21
1.34031
  0
LINE
  8
Engraving
 62
   255
 39
0.008
  6
CONTINUOUS
 10
2.14618
 20
1.34031
 30
 0
 11
2.14488
 21
1.34402
  0
LINE
  8
Engraving
 62
   255
 39
0.008
  6
CONTINUOUS
 10
2.14488
 20
1.34402
 30
 0
 11
2.14311
 21
1.34744
  0
LINE
  8
Engraving
 62
   255
 39
0.008
  6
CONTINUOUS
 10
2.14311
 20
1.34744
 30
 0
 11
2.14087
 21
1.35055
  0
LINE
  8
Engraving
 62
   255
 39
0.008
  6
CONTINUOUS
 10
2.14087
 20
1.35055
 30
 0
 11
2.13827
 21
1.35327
  0
LINE
  8
Engraving
 62
   255
 39
0.008
  6
CONTINUOUS
 10
2.13827
 20
1.35327
 30
 0
 11
2.13531
 21
1.35551
  0
LINE
  8
Engraving
 62
   255
 39
0.008
  6
CONTINUOUS
 10
2.13531
 20
1.35551
 30
 0
 11
2.13209
 21
1.35720
  0
LINE
  8
Engraving
 62
   255
 39
0.008
  6
CONTINUOUS
 10
2.13209
 20
1.35720
 30
 0
 11
2.12866
 21
1.35839
  0
LINE
  8
Engraving
 62
   255
 39
0.008
  6
CONTINUOUS
 10
2.12866
 20
1.35839
 30
 0
 11
2.12512
 21
1.35898
  0
LINE
  8
Engraving
 62
   255
 39
0.008
  6
CONTINUOUS
 10
2.12512
 20
1.35898
 30
 0
 11
2.12157
 21
1.35898
  0
LINE
  8
Engraving
 62
   255
 39
0.008
  6
CONTINUOUS
 10
2.12157
 20
1.35898
 30
 0
 11
2.11803
 21
1.35839
  0
LINE
  8
Engraving
 62
   255
 39
0.008
  6
CONTINUOUS
 10
2.11803
 20
1.35839
 30
 0
 11
2.11461
 21
1.35720
  0
LINE
  8
Engraving
 62
   255
 39
0.008
  6
CONTINUOUS
 10
2.11461
 20
1.35720
 30
 0
 11
2.11142
 21
1.35551
  0
LINE
  8
Engraving
 62
   255
 39
0.008
  6
CONTINUOUS
 10
2.11142
 20
1.35551
 30
 0
 11
2.10843
 21
1.35327
  0
LINE
  8
Engraving
 62
   255
 39
0.008
  6
CONTINUOUS
 10
2.10843
 20
1.35327
 30
 0
 11
2.10579
 21
1.35055
  0
LINE
  8
Engraving
 62
   255
 39
0.008
  6
CONTINUOUS
 10
2.10579
 20
1.35055
 30
 0
 11
2.10358
 21
1.34744
  0
LINE
  8
Engraving
 62
   255
 39
0.008
  6
CONTINUOUS
 10
2.10358
 20
1.34744
 30
 0
 11
2.10181
 21
1.34402
  0
LINE
  8
Engraving
 62
   255
 39
0.008
  6
CONTINUOUS
 10
2.10181
 20
1.34402
 30
 0
 11
2.10047
 21
1.34031
  0
LINE
  8
Engraving
 62
   255
 39
0.008
  6
CONTINUOUS
 10
2.10047
 20
1.34031
 30
 0
 11
2.09972
 21
1.33646
  0
LINE
  8
Engraving
 62
   255
 39
0.008
  6
CONTINUOUS
 10
2.09972
 20
1.33646
 30
 0
 11
2.09941
 21
1.33248
  0
LINE
  8
Engraving
 62
   255
 39
0.008
  6
CONTINUOUS
 10
2.09941
 20
1.33248
 30
 0
 11
2.09941
 21
1.33248
  0
LINE
  8
Engraving
 62
   255
 39
0.008
  6
CONTINUOUS
 10
2.09941
 20
1.33248
 30
 0
 11
2.09941
 21
1.26752
  0
LINE
  8
Engraving
 62
   255
 39
0.008
  6
CONTINUOUS
 10
2.17736
 20
1.35906
 30
 0
 11
2.17736
 21
1.24094
  0
LINE
  8
Engraving
 62
   255
 39
0.008
  6
CONTINUOUS
 10
2.20752
 20
1.27047
 30
 0
 11
2.20780
 21
1.26606
  0
LINE
  8
Engraving
 62
   255
 39
0.008
  6
CONTINUOUS
 10
2.20780
 20
1.26606
 30
 0
 11
2.20866
 21
1.26177
  0
LINE
  8
Engraving
 62
   255
 39
0.008
  6
CONTINUOUS
 10
2.20866
 20
1.26177
 30
 0
 11
2.21012
 21
1.25768
  0
LINE
  8
Engraving
 62
   255
 39
0.008
  6
CONTINUOUS
 10
2.21012
 20
1.25768
 30
 0
 11
2.21213
 21
1.25386
  0
LINE
  8
Engraving
 62
   255
 39
0.008
  6
CONTINUOUS
 10
2.21213
 20
1.25386
 30
 0
 11
2.21461
 21
1.25039
  0
LINE
  8
Engraving
 62
   255
 39
0.008
  6
CONTINUOUS
 10
2.21461
 20
1.25039
 30
 0
 11
2.21748
 21
1.24740
  0
LINE
  8
Engraving
 62
   255
 39
0.008
  6
CONTINUOUS
 10
2.21748
 20
1.24740
 30
 0
 11
2.22079
 21
1.24488
  0
LINE
  8
Engraving
 62
   255
 39
0.008
  6
CONTINUOUS
 10
2.22079
 20
1.24488
 30
 0
 11
2.22437
 21
1.24299
  0
LINE
  8
Engraving
 62
   255
 39
0.008
  6
CONTINUOUS
 10
2.22437
 20
1.24299
 30
 0
 11
2.22815
 21
1.24169
  0
LINE
  8
Engraving
 62
   255
 39
0.008
  6
CONTINUOUS
 10
2.22815
 20
1.24169
 30
 0
 11
2.23209
 21
1.24102
  0
LINE
  8
Engraving
 62
   255
 39
0.008
  6
CONTINUOUS
 10
2.23209
 20
1.24102
 30
 0
 11
2.23606
 21
1.24102
  0
LINE
  8
Engraving
 62
   255
 39
0.008
  6
CONTINUOUS
 10
2.23606
 20
1.24102
 30
 0
 11
2.24000
 21
1.24169
  0
LINE
  8
Engraving
 62
   255
 39
0.008
  6
CONTINUOUS
 10
2.24000
 20
1.24169
 30
 0
 11
2.24378
 21
1.24299
  0
LINE
  8
Engraving
 62
   255
 39
0.008
  6
CONTINUOUS
 10
2.24378
 20
1.24299
 30
 0
 11
2.24736
 21
1.24488
  0
LINE
  8
Engraving
 62
   255
 39
0.008
  6
CONTINUOUS
 10
2.24736
 20
1.24488
 30
 0
 11
2.25067
 21
1.24740
  0
LINE
  8
Engraving
 62
   255
 39
0.008
  6
CONTINUOUS
 10
2.25067
 20
1.24740
 30
 0
 11
2.25358
 21
1.25039
  0
LINE
  8
Engraving
 62
   255
 39
0.008
  6
CONTINUOUS
 10
2.25358
 20
1.25039
 30
 0
 11
2.25606
 21
1.25386
  0
LINE
  8
Engraving
 62
   255
 39
0.008
  6
CONTINUOUS
 10
2.25606
 20
1.25386
 30
 0
 11
2.25803
 21
1.25768
  0
LINE
  8
Engraving
 62
   255
 39
0.008
  6
CONTINUOUS
 10
2.25803
 20
1.25768
 30
 0
 11
2.25949
 21
1.26177
  0
LINE
  8
Engraving
 62
   255
 39
0.008
  6
CONTINUOUS
 10
2.25949
 20
1.26177
 30
 0
 11
2.26035
 21
1.26606
  0
LINE
  8
Engraving
 62
   255
 39
0.008
  6
CONTINUOUS
 10
2.26035
 20
1.26606
 30
 0
 11
2.26067
 21
1.27047
  0
LINE
  8
Engraving
 62
   255
 39
0.008
  6
CONTINUOUS
 10
2.26067
 20
1.27047
 30
 0
 11
2.26067
 21
1.27047
  0
LINE
  8
Engraving
 62
   255
 39
0.008
  6
CONTINUOUS
 10
2.26067
 20
1.27047
 30
 0
 11
2.26039
 21
1.27469
  0
LINE
  8
Engraving
 62
   255
 39
0.008
  6
CONTINUOUS
 10
2.26039
 20
1.27469
 30
 0
 11
2.25961
 21
1.27882
  0
LINE
  8
Engraving
 62
   255
 39
0.008
  6
CONTINUOUS
 10
2.25961
 20
1.27882
 30
 0
 11
2.25827
 21
1.28276
  0
LINE
  8
Engraving
 62
   255
 39
0.008
  6
CONTINUOUS
 10
2.25827
 20
1.28276
 30
 0
 11
2.25646
 21
1.28646
  0
LINE
  8
Engraving
 62
   255
 39
0.008
  6
CONTINUOUS
 10
2.25646
 20
1.28646
 30
 0
 11
2.25421
 21
1.28984
  0
LINE
  8
Engraving
 62
   255
 39
0.008
  6
CONTINUOUS
 10
2.25421
 20
1.28984
 30
 0
 11
2.25150
 21
1.29283
  0
LINE
  8
Engraving
 62
   255
 39
0.008
  6
CONTINUOUS
 10
2.25150
 20
1.29283
 30
 0
 11
2.24846
 21
1.29535
  0
LINE
  8
Engraving
 62
   255
 39
0.008
  6
CONTINUOUS
 10
2.24846
 20
1.29535
 30
 0
 11
2.24512
 21
1.29736
  0
LINE
  8
Engraving
 62
   255
 39
0.008
  6
CONTINUOUS
 10
2.24512
 20
1.29736
 30
 0
 11
2.24157
 21
1.29886
  0
LINE
  8
Engraving
 62
   255
 39
0.008
  6
CONTINUOUS
 10
2.24157
 20
1.29886
 30
 0
 11
2.23787
 21
1.29972
  0
LINE
  8
Engraving
 62
   255
 39
0.008
  6
CONTINUOUS
 10
2.23787
 20
1.29972
 30
 0
 11
2.23409
 21
1.30000
  0
LINE
  8
Engraving
 62
   255
 39
0.008
  6
CONTINUOUS
 10
2.23409
 20
1.30000
 30
 0
 11
2.23409
 21
1.30000
  0
LINE
  8
Engraving
 62
   255
 39
0.008
  6
CONTINUOUS
 10
2.23409
 20
1.30000
 30
 0
 11
2.23012
 21
1.30031
  0
LINE
  8
Engraving
 62
   255
 39
0.008
  6
CONTINUOUS
 10
2.23012
 20
1.30031
 30
 0
 11
2.22626
 21
1.30130
  0
LINE
  8
Engraving
 62
   255
 39
0.008
  6
CONTINUOUS
 10
2.22626
 20
1.30130
 30
 0
 11
2.22256
 21
1.30291
  0
LINE
  8
Engraving
 62
   255
 39
0.008
  6
CONTINUOUS
 10
2.22256
 20
1.30291
 30
 0
 11
2.21913
 21
1.30512
  0
LINE
  8
Engraving
 62
   255
 39
0.008
  6
CONTINUOUS
 10
2.21913
 20
1.30512
 30
 0
 11
2.21602
 21
1.30787
  0
LINE
  8
Engraving
 62
   255
 39
0.008
  6
CONTINUOUS
 10
2.21602
 20
1.30787
 30
 0
 11
2.21331
 21
1.31110
  0
LINE
  8
Engraving
 62
   255
 39
0.008
  6
CONTINUOUS
 10
2.21331
 20
1.31110
 30
 0
 11
2.21106
 21
1.31476
  0
LINE
  8
Engraving
 62
   255
 39
0.008
  6
CONTINUOUS
 10
2.21106
 20
1.31476
 30
 0
 11
2.20933
 21
1.31874
  0
LINE
  8
Engraving
 62
   255
 39
0.008
  6
CONTINUOUS
 10
2.20933
 20
1.31874
 30
 0
 11
2.20819
 21
1.32295
  0
LINE
  8
Engraving
 62
   255
 39
0.008
  6
CONTINUOUS
 10
2.20819
 20
1.32295
 30
 0
 11
2.20756
 21
1.32732
  0
LINE
  8
Engraving
 62
   255
 39
0.008
  6
CONTINUOUS
 10
2.20756
 20
1.32732
 30
 0
 11
2.20756
 21
1.33173
  0
LINE
  8
Engraving
 62
   255
 39
0.008
  6
CONTINUOUS
 10
2.20756
 20
1.33173
 30
 0
 11
2.20819
 21
1.33610
  0
LINE
  8
Engraving
 62
   255
 39
0.008
  6
CONTINUOUS
 10
2.20819
 20
1.33610
 30
 0
 11
2.20933
 21
1.34031
  0
LINE
  8
Engraving
 62
   255
 39
0.008
  6
CONTINUOUS
 10
2.20933
 20
1.34031
 30
 0
 11
2.21106
 21
1.34429
  0
LINE
  8
Engraving
 62
   255
 39
0.008
  6
CONTINUOUS
 10
2.21106
 20
1.34429
 30
 0
 11
2.21331
 21
1.34795
  0
LINE
  8
Engraving
 62
   255
 39
0.008
  6
CONTINUOUS
 10
2.21331
 20
1.34795
 30
 0
 11
2.21602
 21
1.35118
  0
LINE
  8
Engraving
 62
   255
 39
0.008
  6
CONTINUOUS
 10
2.21602
 20
1.35118
 30
 0
 11
2.21913
 21
1.35394
  0
LINE
  8
Engraving
 62
   255
 39
0.008
  6
CONTINUOUS
 10
2.21913
 20
1.35394
 30
 0
 11
2.22256
 21
1.35614
  0
LINE
  8
Engraving
 62
   255
 39
0.008
  6
CONTINUOUS
 10
2.22256
 20
1.35614
 30
 0
 11
2.22626
 21
1.35776
  0
LINE
  8
Engraving
 62
   255
 39
0.008
  6
CONTINUOUS
 10
2.22626
 20
1.35776
 30
 0
 11
2.23012
 21
1.35874
  0
LINE
  8
Engraving
 62
   255
 39
0.008
  6
CONTINUOUS
 10
2.23012
 20
1.35874
 30
 0
 11
2.23409
 21
1.35906
  0
LINE
  8
Engraving
 62
   255
 39
0.008
  6
CONTINUOUS
 10
2.23409
 20
1.35906
 30
 0
 11
2.23409
 21
1.35906
  0
LINE
  8
Engraving
 62
   255
 39
0.008
  6
CONTINUOUS
 10
2.23409
 20
1.35906
 30
 0
 11
2.23795
 21
1.35878
  0
LINE
  8
Engraving
 62
   255
 39
0.008
  6
CONTINUOUS
 10
2.23795
 20
1.35878
 30
 0
 11
2.24173
 21
1.35783
  0
LINE
  8
Engraving
 62
   255
 39
0.008
  6
CONTINUOUS
 10
2.24173
 20
1.35783
 30
 0
 11
2.24539
 21
1.35630
  0
LINE
  8
Engraving
 62
   255
 39
0.008
  6
CONTINUOUS
 10
2.24539
 20
1.35630
 30
 0
 11
2.24874
 21
1.35421
  0
LINE
  8
Engraving
 62
   255
 39
0.008
  6
CONTINUOUS
 10
2.24874
 20
1.35421
 30
 0
 11
2.25181
 21
1.35157
  0
LINE
  8
Engraving
 62
   255
 39
0.008
  6
CONTINUOUS
 10
2.25181
 20
1.35157
 30
 0
 11
2.25453
 21
1.34850
  0
LINE
  8
Engraving
 62
   255
 39
0.008
  6
CONTINUOUS
 10
2.25453
 20
1.34850
 30
 0
 11
2.25677
 21
1.34496
  0
LINE
  8
Engraving
 62
   255
 39
0.008
  6
CONTINUOUS
 10
2.25677
 20
1.34496
 30
 0
 11
2.25854
 21
1.34114
  0
LINE
  8
Engraving
 62
   255
 39
0.008
  6
CONTINUOUS
 10
2.25854
 20
1.34114
 30
 0
 11
2.25980
 21
1.33705
  0
LINE
  8
Engraving
 62
   255
 39
0.008
  6
CONTINUOUS
 10
2.25980
 20
1.33705
 30
 0
 11
2.26051
 21
1.33283
  0
LINE
  8
Engraving
 62
   255
 39
0.008
  6
CONTINUOUS
 10
2.26051
 20
1.33283
 30
 0
 11
2.26067
 21
1.32953
  0
LINE
  8
Engraving
 62
   255
 39
0.008
  6
CONTINUOUS
 10
2.33862
 20
1.35906
 30
 0
 11
2.29079
 21
1.35906
  0
LINE
  8
Engraving
 62
   255
 39
0.008
  6
CONTINUOUS
 10
2.29079
 20
1.35906
 30
 0
 11
2.29079
 21
1.24094
  0
LINE
  8
Engraving
 62
   255
 39
0.008
  6
CONTINUOUS
 10
2.29079
 20
1.24094
 30
 0
 11
2.33862
 21
1.24094
  0
LINE
  8
Engraving
 62
   255
 39
0.008
  6
CONTINUOUS
 10
2.29079
 20
1.30000
 30
 0
 11
2.33063
 21
1.30000
  0
LINE
  8
Engraving
 62
   255
 39
0.008
  6
CONTINUOUS
 10
2.95315
 20
1.26752
 30
 0
 11
2.95346
 21
1.26354
  0
LINE
  8
Engraving
 62
   255
 39
0.008
  6
CONTINUOUS
 10
2.95346
 20
1.26354
 30
 0
 11
2.95421
 21
1.25969
  0
LINE
  8
Engraving
 62
   255
 39
0.008
  6
CONTINUOUS
 10
2.95421
 20
1.25969
 30
 0
 11
2.95555
 21
1.25598
  0
LINE
  8
Engraving
 62
   255
 39
0.008
  6
CONTINUOUS
 10
2.95555
 20
1.25598
 30
 0
 11
2.95732
 21
1.25256
  0
LINE
  8
Engraving
 62
   255
 39
0.008
  6
CONTINUOUS
 10
2.95732
 20
1.25256
 30
 0
 11
2.95953
 21
1.24945
  0
LINE
  8
Engraving
 62
   255
 39
0.008
  6
CONTINUOUS
 10
2.95953
 20
1.24945
 30
 0
 11
2.96217
 21
1.24673
  0
LINE
  8
Engraving
 62
   255
 39
0.008
  6
CONTINUOUS
 10
2.96217
 20
1.24673
 30
 0
 11
2.96516
 21
1.24449
  0
LINE
  8
Engraving
 62
   255
 39
0.008
  6
CONTINUOUS
 10
2.96516
 20
1.24449
 30
 0
 11
2.96835
 21
1.24280
  0
LINE
  8
Engraving
 62
   255
 39
0.008
  6
CONTINUOUS
 10
2.96835
 20
1.24280
 30
 0
 11
2.97177
 21
1.24161
  0
LINE
  8
Engraving
 62
   255
 39
0.008
  6
CONTINUOUS
 10
2.97177
 20
1.24161
 30
 0
 11
2.97531
 21
1.24102
  0
LINE
  8
Engraving
 62
   255
 39
0.008
  6
CONTINUOUS
 10
2.97531
 20
1.24102
 30
 0
 11
2.97886
 21
1.24102
  0
LINE
  8
Engraving
 62
   255
 39
0.008
  6
CONTINUOUS
 10
2.97886
 20
1.24102
 30
 0
 11
2.98240
 21
1.24161
  0
LINE
  8
Engraving
 62
   255
 39
0.008
  6
CONTINUOUS
 10
2.98240
 20
1.24161
 30
 0
 11
2.98583
 21
1.24280
  0
LINE
  8
Engraving
 62
   255
 39
0.008
  6
CONTINUOUS
 10
2.98583
 20
1.24280
 30
 0
 11
2.98902
 21
1.24449
  0
LINE
  8
Engraving
 62
   255
 39
0.008
  6
CONTINUOUS
 10
2.98902
 20
1.24449
 30
 0
 11
2.99201
 21
1.24673
  0
LINE
  8
Engraving
 62
   255
 39
0.008
  6
CONTINUOUS
 10
2.99201
 20
1.24673
 30
 0
 11
2.99461
 21
1.24945
  0
LINE
  8
Engraving
 62
   255
 39
0.008
  6
CONTINUOUS
 10
2.99461
 20
1.24945
 30
 0
 11
2.99685
 21
1.25256
  0
LINE
  8
Engraving
 62
   255
 39
0.008
  6
CONTINUOUS
 10
2.99685
 20
1.25256
 30
 0
 11
2.99862
 21
1.25598
  0
LINE
  8
Engraving
 62
   255
 39
0.008
  6
CONTINUOUS
 10
2.99862
 20
1.25598
 30
 0
 11
2.99992
 21
1.25969
  0
LINE
  8
Engraving
 62
   255
 39
0.008
  6
CONTINUOUS
 10
2.99992
 20
1.25969
 30
 0
 11
3.00071
 21
1.26354
  0
LINE
  8
Engraving
 62
   255
 39
0.008
  6
CONTINUOUS
 10
3.00071
 20
1.26354
 30
 0
 11
3.00098
 21
1.26752
  0
LINE
  8
Engraving
 62
   255
 39
0.008
  6
CONTINUOUS
 10
3.00098
 20
1.26752
 30
 0
 11
3.00098
 21
1.26752
  0
LINE
  8
Engraving
 62
   255
 39
0.008
  6
CONTINUOUS
 10
3.00098
 20
1.26752
 30
 0
 11
3.00098
 21
1.33248
  0
LINE
  8
Engraving
 62
   255
 39
0.008
  6
CONTINUOUS
 10
3.00098
 20
1.33248
 30
 0
 11
3.00071
 21
1.33646
  0
LINE
  8
Engraving
 62
   255
 39
0.008
  6
CONTINUOUS
 10
3.00071
 20
1.33646
 30
 0
 11
2.99992
 21
1.34031
  0
LINE
  8
Engraving
 62
   255
 39
0.008
  6
CONTINUOUS
 10
2.99992
 20
1.34031
 30
 0
 11
2.99862
 21
1.34402
  0
LINE
  8
Engraving
 62
   255
 39
0.008
  6
CONTINUOUS
 10
2.99862
 20
1.34402
 30
 0
 11
2.99685
 21
1.34744
  0
LINE
  8
Engraving
 62
   255
 39
0.008
  6
CONTINUOUS
 10
2.99685
 20
1.34744
 30
 0
 11
2.99461
 21
1.35055
  0
LINE
  8
Engraving
 62
   255
 39
0.008
  6
CONTINUOUS
 10
2.99461
 20
1.35055
 30
 0
 11
2.99201
 21
1.35327
  0
LINE
  8
Engraving
 62
   255
 39
0.008
  6
CONTINUOUS
 10
2.99201
 20
1.35327
 30
 0
 11
2.98906
 21
1.35551
  0
LINE
  8
Engraving
 62
   255
 39
0.008
  6
CONTINUOUS
 10
2.98906
 20
1.35551
 30
 0
 11
2.98583
 21
1.35720
  0
LINE
  8
Engraving
 62
   255
 39
0.008
  6
CONTINUOUS
 10
2.98583
 20
1.35720
 30
 0
 11
2.98240
 21
1.35839
  0
LINE
  8
Engraving
 62
   255
 39
0.008
  6
CONTINUOUS
 10
2.98240
 20
1.35839
 30
 0
 11
2.97886
 21
1.35898
  0
LINE
  8
Engraving
 62
   255
 39
0.008
  6
CONTINUOUS
 10
2.97886
 20
1.35898
 30
 0
 11
2.97531
 21
1.35898
  0
LINE
  8
Engraving
 62
   255
 39
0.008
  6
CONTINUOUS
 10
2.97531
 20
1.35898
 30
 0
 11
2.97177
 21
1.35839
  0
LINE
  8
Engraving
 62
   255
 39
0.008
  6
CONTINUOUS
 10
2.97177
 20
1.35839
 30
 0
 11
2.96835
 21
1.35720
  0
LINE
  8
Engraving
 62
   255
 39
0.008
  6
CONTINUOUS
 10
2.96835
 20
1.35720
 30
 0
 11
2.96516
 21
1.35551
  0
LINE
  8
Engraving
 62
   255
 39
0.008
  6
CONTINUOUS
 10
2.96516
 20
1.35551
 30
 0
 11
2.96217
 21
1.35327
  0
LINE
  8
Engraving
 62
   255
 39
0.008
  6
CONTINUOUS
 10
2.96217
 20
1.35327
 30
 0
 11
2.95953
 21
1.35055
  0
LINE
  8
Engraving
 62
   255
 39
0.008
  6
CONTINUOUS
 10
2.95953
 20
1.35055
 30
 0
 11
2.95732
 21
1.34744
  0
LINE
  8
Engraving
 62
   255
 39
0.008
  6
CONTINUOUS
 10
2.95732
 20
1.34744
 30
 0
 11
2.95555
 21
1.34402
  0
LINE
  8
Engraving
 62
   255
 39
0.008
  6
CONTINUOUS
 10
2.95555
 20
1.34402
 30
 0
 11
2.95421
 21
1.34031
  0
LINE
  8
Engraving
 62
   255
 39
0.008
  6
CONTINUOUS
 10
2.95421
 20
1.34031
 30
 0
 11
2.95346
 21
1.33646
  0
LINE
  8
Engraving
 62
   255
 39
0.008
  6
CONTINUOUS
 10
2.95346
 20
1.33646
 30
 0
 11
2.95315
 21
1.33248
  0
LINE
  8
Engraving
 62
   255
 39
0.008
  6
CONTINUOUS
 10
2.95315
 20
1.33248
 30
 0
 11
2.95315
 21
1.33248
  0
LINE
  8
Engraving
 62
   255
 39
0.008
  6
CONTINUOUS
 10
2.95315
 20
1.33248
 30
 0
 11
2.95315
 21
1.26752
  0
LINE
  8
Engraving
 62
   255
 39
0.008
  6
CONTINUOUS
 10
3.03110
 20
1.35906
 30
 0
 11
3.03110
 21
1.26752
  0
LINE
  8
Engraving
 62
   255
 39
0.008
  6
CONTINUOUS
 10
3.03110
 20
1.26752
 30
 0
 11
3.03142
 21
1.26354
  0
LINE
  8
Engraving
 62
   255
 39
0.008
  6
CONTINUOUS
 10
3.03142
 20
1.26354
 30
 0
 11
3.03217
 21
1.25969
  0
LINE
  8
Engraving
 62
   255
 39
0.008
  6
CONTINUOUS
 10
3.03217
 20
1.25969
 30
 0
 11
3.03350
 21
1.25598
  0
LINE
  8
Engraving
 62
   255
 39
0.008
  6
CONTINUOUS
 10
3.03350
 20
1.25598
 30
 0
 11
3.03528
 21
1.25256
  0
LINE
  8
Engraving
 62
   255
 39
0.008
  6
CONTINUOUS
 10
3.03528
 20
1.25256
 30
 0
 11
3.03748
 21
1.24945
  0
LINE
  8
Engraving
 62
   255
 39
0.008
  6
CONTINUOUS
 10
3.03748
 20
1.24945
 30
 0
 11
3.04012
 21
1.24673
  0
LINE
  8
Engraving
 62
   255
 39
0.008
  6
CONTINUOUS
 10
3.04012
 20
1.24673
 30
 0
 11
3.04311
 21
1.24449
  0
LINE
  8
Engraving
 62
   255
 39
0.008
  6
CONTINUOUS
 10
3.04311
 20
1.24449
 30
 0
 11
3.04630
 21
1.24280
  0
LINE
  8
Engraving
 62
   255
 39
0.008
  6
CONTINUOUS
 10
3.04630
 20
1.24280
 30
 0
 11
3.04972
 21
1.24161
  0
LINE
  8
Engraving
 62
   255
 39
0.008
  6
CONTINUOUS
 10
3.04972
 20
1.24161
 30
 0
 11
3.05327
 21
1.24102
  0
LINE
  8
Engraving
 62
   255
 39
0.008
  6
CONTINUOUS
 10
3.05327
 20
1.24102
 30
 0
 11
3.05681
 21
1.24102
  0
LINE
  8
Engraving
 62
   255
 39
0.008
  6
CONTINUOUS
 10
3.05681
 20
1.24102
 30
 0
 11
3.06035
 21
1.24161
  0
LINE
  8
Engraving
 62
   255
 39
0.008
  6
CONTINUOUS
 10
3.06035
 20
1.24161
 30
 0
 11
3.06378
 21
1.24280
  0
LINE
  8
Engraving
 62
   255
 39
0.008
  6
CONTINUOUS
 10
3.06378
 20
1.24280
 30
 0
 11
3.06701
 21
1.24449
  0
LINE
  8
Engraving
 62
   255
 39
0.008
  6
CONTINUOUS
 10
3.06701
 20
1.24449
 30
 0
 11
3.06996
 21
1.24673
  0
LINE
  8
Engraving
 62
   255
 39
0.008
  6
CONTINUOUS
 10
3.06996
 20
1.24673
 30
 0
 11
3.07260
 21
1.24945
  0
LINE
  8
Engraving
 62
   255
 39
0.008
  6
CONTINUOUS
 10
3.07260
 20
1.24945
 30
 0
 11
3.07480
 21
1.25256
  0
LINE
  8
Engraving
 62
   255
 39
0.008
  6
CONTINUOUS
 10
3.07480
 20
1.25256
 30
 0
 11
3.07657
 21
1.25598
  0
LINE
  8
Engraving
 62
   255
 39
0.008
  6
CONTINUOUS
 10
3.07657
 20
1.25598
 30
 0
 11
3.07791
 21
1.25969
  0
LINE
  8
Engraving
 62
   255
 39
0.008
  6
CONTINUOUS
 10
3.07791
 20
1.25969
 30
 0
 11
3.07866
 21
1.26354
  0
LINE
  8
Engraving
 62
   255
 39
0.008
  6
CONTINUOUS
 10
3.07866
 20
1.26354
 30
 0
 11
3.07898
 21
1.26752
  0
LINE
  8
Engraving
 62
   255
 39
0.008
  6
CONTINUOUS
 10
3.07898
 20
1.26752
 30
 0
 11
3.07898
 21
1.26752
  0
LINE
  8
Engraving
 62
   255
 39
0.008
  6
CONTINUOUS
 10
3.07898
 20
1.26752
 30
 0
 11
3.07898
 21
1.35906
  0
LINE
  8
Engraving
 62
   255
 39
0.008
  6
CONTINUOUS
 10
3.10909
 20
1.35906
 30
 0
 11
3.15693
 21
1.35906
  0
LINE
  8
Engraving
 62
   255
 39
0.008
  6
CONTINUOUS
 10
3.15693
 20
1.35906
 30
 0
 11
3.13299
 21
1.35906
  0
LINE
  8
Engraving
 62
   255
 39
0.008
  6
CONTINUOUS
 10
3.13299
 20
1.35906
 30
 0
 11
3.13299
 21
1.24094
  0
LINE
  8
Engraving
 62
   255
 39
0.008
  6
CONTINUOUS
 10
1.08000
 20
1.24094
 30
 0
 11
1.11189
 21
1.35906
  0
LINE
  8
Engraving
 62
   255
 39
0.008
  6
CONTINUOUS
 10
1.11189
 20
1.35906
 30
 0
 11
1.14378
 21
1.24094
  0
LINE
  8
Engraving
 62
   255
 39
0.008
  6
CONTINUOUS
 10
1.09063
 20
1.27638
 30
 0
 11
1.13315
 21
1.27638
  0
LINE
  8
Engraving
 62
   255
 39
0.008
  6
CONTINUOUS
 10
1.21996
 20
1.33346
 30
 0
 11
1.21972
 21
1.33728
  0
LINE
  8
Engraving
 62
   255
 39
0.008
  6
CONTINUOUS
 10
1.21972
 20
1.33728
 30
 0
 11
1.21894
 21
1.34102
  0
LINE
  8
Engraving
 62
   255
 39
0.008
  6
CONTINUOUS
 10
1.21894
 20
1.34102
 30
 0
 11
1.21768
 21
1.34457
  0
LINE
  8
Engraving
 62
   255
 39
0.008
  6
CONTINUOUS
 10
1.21768
 20
1.34457
 30
 0
 11
1.21594
 21
1.34787
  0
LINE
  8
Engraving
 62
   255
 39
0.008
  6
CONTINUOUS
 10
1.21594
 20
1.34787
 30
 0
 11
1.21378
 21
1.35087
  0
LINE
  8
Engraving
 62
   255
 39
0.008
  6
CONTINUOUS
 10
1.21378
 20
1.35087
 30
 0
 11
1.21126
 21
1.35346
  0
LINE
  8
Engraving
 62
   255
 39
0.008
  6
CONTINUOUS
 10
1.21126
 20
1.35346
 30
 0
 11
1.20843
 21
1.35563
  0
LINE
  8
Engraving
 62
   255
 39
0.008
  6
CONTINUOUS
 10
1.20843
 20
1.35563
 30
 0
 11
1.20531
 21
1.35728
  0
LINE
  8
Engraving
 62
   255
 39
0.008
  6
CONTINUOUS
 10
1.20531
 20
1.35728
 30
 0
 11
1.20205
 21
1.35843
  0
LINE
  8
Engraving
 62
   255
 39
0.008
  6
CONTINUOUS
 10
1.20205
 20
1.35843
 30
 0
 11
1.19866
 21
1.35898
  0
LINE
  8
Engraving
 62
   255
 39
0.008
  6
CONTINUOUS
 10
1.19866
 20
1.35898
 30
 0
 11
1.19520
 21
1.35898
  0
LINE
  8
Engraving
 62
   255
 39
0.008
  6
CONTINUOUS
 10
1.19520
 20
1.35898
 30
 0
 11
1.19177
 21
1.35843
  0
LINE
  8
Engraving
 62
   255
 39
0.008
  6
CONTINUOUS
 10
1.19177
 20
1.35843
 30
 0
 11
1.18854
 21
1.35728
  0
LINE
  8
Engraving
 62
   255
 39
0.008
  6
CONTINUOUS
 10
1.18854
 20
1.35728
 30
 0
 11
1.18539
 21
1.35563
  0
LINE
  8
Engraving
 62
   255
 39
0.008
  6
CONTINUOUS
 10
1.18539
 20
1.35563
 30
 0
 11
1.18256
 21
1.35346
  0
LINE
  8
Engraving
 62
   255
 39
0.008
  6
CONTINUOUS
 10
1.18256
 20
1.35346
 30
 0
 11
1.18008
 21
1.35087
  0
LINE
  8
Engraving
 62
   255
 39
0.008
  6
CONTINUOUS
 10
1.18008
 20
1.35087
 30
 0
 11
1.17791
 21
1.34787
  0
LINE
  8
Engraving
 62
   255
 39
0.008
  6
CONTINUOUS
 10
1.17791
 20
1.34787
 30
 0
 11
1.17618
 21
1.34457
  0
LINE
  8
Engraving
 62
   255
 39
0.008
  6
CONTINUOUS
 10
1.17618
 20
1.34457
 30
 0
 11
1.17492
 21
1.34102
  0
LINE
  8
Engraving
 62
   255
 39
0.008
  6
CONTINUOUS
 10
1.17492
 20
1.34102
 30
 0
 11
1.17413
 21
1.33728
  0
LINE
  8
Engraving
 62
   255
 39
0.008
  6
CONTINUOUS
 10
1.17413
 20
1.33728
 30
 0
 11
1.17390
 21
1.33346
  0
LINE
  8
Engraving
 62
   255
 39
0.008
  6
CONTINUOUS
 10
1.17390
 20
1.33346
 30
 0
 11
1.17390
 21
1.33346
  0
LINE
  8
Engraving
 62
   255
 39
0.008
  6
CONTINUOUS
 10
1.17390
 20
1.33346
 30
 0
 11
1.17390
 21
1.26654
  0
LINE
  8
Engraving
 62
   255
 39
0.008
  6
CONTINUOUS
 10
1.17390
 20
1.26654
 30
 0
 11
1.17413
 21
1.26272
  0
LINE
  8
Engraving
 62
   255
 39
0.008
  6
CONTINUOUS
 10
1.17413
 20
1.26272
 30
 0
 11
1.17492
 21
1.25898
  0
LINE
  8
Engraving
 62
   255
 39
0.008
  6
CONTINUOUS
 10
1.17492
 20
1.25898
 30
 0
 11
1.17618
 21
1.25543
  0
LINE
  8
Engraving
 62
   255
 39
0.008
  6
CONTINUOUS
 10
1.17618
 20
1.25543
 30
 0
 11
1.17791
 21
1.25213
  0
LINE
  8
Engraving
 62
   255
 39
0.008
  6
CONTINUOUS
 10
1.17791
 20
1.25213
 30
 0
 11
1.18008
 21
1.24913
  0
LINE
  8
Engraving
 62
   255
 39
0.008
  6
CONTINUOUS
 10
1.18008
 20
1.24913
 30
 0
 11
1.18256
 21
1.24654
  0
LINE
  8
Engraving
 62
   255
 39
0.008
  6
CONTINUOUS
 10
1.18256
 20
1.24654
 30
 0
 11
1.18539
 21
1.24437
  0
LINE
  8
Engraving
 62
   255
 39
0.008
  6
CONTINUOUS
 10
1.18539
 20
1.24437
 30
 0
 11
1.18854
 21
1.24272
  0
LINE
  8
Engraving
 62
   255
 39
0.008
  6
CONTINUOUS
 10
1.18854
 20
1.24272
 30
 0
 11
1.19177
 21
1.24157
  0
LINE
  8
Engraving
 62
   255
 39
0.008
  6
CONTINUOUS
 10
1.19177
 20
1.24157
 30
 0
 11
1.19520
 21
1.24102
  0
LINE
  8
Engraving
 62
   255
 39
0.008
  6
CONTINUOUS
 10
1.19520
 20
1.24102
 30
 0
 11
1.19866
 21
1.24102
  0
LINE
  8
Engraving
 62
   255
 39
0.008
  6
CONTINUOUS
 10
1.19866
 20
1.24102
 30
 0
 11
1.20205
 21
1.24157
  0
LINE
  8
Engraving
 62
   255
 39
0.008
  6
CONTINUOUS
 10
1.20205
 20
1.24157
 30
 0
 11
1.20531
 21
1.24272
  0
LINE
  8
Engraving
 62
   255
 39
0.008
  6
CONTINUOUS
 10
1.20531
 20
1.24272
 30
 0
 11
1.20843
 21
1.24437
  0
LINE
  8
Engraving
 62
   255
 39
0.008
  6
CONTINUOUS
 10
1.20843
 20
1.24437
 30
 0
 11
1.21126
 21
1.24654
  0
LINE
  8
Engraving
 62
   255
 39
0.008
  6
CONTINUOUS
 10
1.21126
 20
1.24654
 30
 0
 11
1.21378
 21
1.24913
  0
LINE
  8
Engraving
 62
   255
 39
0.008
  6
CONTINUOUS
 10
1.21378
 20
1.24913
 30
 0
 11
1.21594
 21
1.25213
  0
LINE
  8
Engraving
 62
   255
 39
0.008
  6
CONTINUOUS
 10
1.21594
 20
1.25213
 30
 0
 11
1.21768
 21
1.25543
  0
LINE
  8
Engraving
 62
   255
 39
0.008
  6
CONTINUOUS
 10
1.21768
 20
1.25543
 30
 0
 11
1.21894
 21
1.25898
  0
LINE
  8
Engraving
 62
   255
 39
0.008
  6
CONTINUOUS
 10
1.21894
 20
1.25898
 30
 0
 11
1.21972
 21
1.26272
  0
LINE
  8
Engraving
 62
   255
 39
0.008
  6
CONTINUOUS
 10
1.21972
 20
1.26272
 30
 0
 11
1.21996
 21
1.26654
  0
LINE
  8
Engraving
 62
   255
 39
0.008
  6
CONTINUOUS
 10
1.21996
 20
1.26654
 30
 0
 11
1.21996
 21
1.26654
  0
LINE
  8
Engraving
 62
   255
 39
0.008
  6
CONTINUOUS
 10
1.29614
 20
1.33346
 30
 0
 11
1.29591
 21
1.33728
  0
LINE
  8
Engraving
 62
   255
 39
0.008
  6
CONTINUOUS
 10
1.29591
 20
1.33728
 30
 0
 11
1.29512
 21
1.34102
  0
LINE
  8
Engraving
 62
   255
 39
0.008
  6
CONTINUOUS
 10
1.29512
 20
1.34102
 30
 0
 11
1.29386
 21
1.34457
  0
LINE
  8
Engraving
 62
   255
 39
0.008
  6
CONTINUOUS
 10
1.29386
 20
1.34457
 30
 0
 11
1.29213
 21
1.34787
  0
LINE
  8
Engraving
 62
   255
 39
0.008
  6
CONTINUOUS
 10
1.29213
 20
1.34787
 30
 0
 11
1.28996
 21
1.35087
  0
LINE
  8
Engraving
 62
   255
 39
0.008
  6
CONTINUOUS
 10
1.28996
 20
1.35087
 30
 0
 11
1.28744
 21
1.35346
  0
LINE
  8
Engraving
 62
   255
 39
0.008
  6
CONTINUOUS
 10
1.28744
 20
1.35346
 30
 0
 11
1.28461
 21
1.35563
  0
LINE
  8
Engraving
 62
   255
 39
0.008
  6
CONTINUOUS
 10
1.28461
 20
1.35563
 30
 0
 11
1.28150
 21
1.35728
  0
LINE
  8
Engraving
 62
   255
 39
0.008
  6
CONTINUOUS
 10
1.28150
 20
1.35728
 30
 0
 11
1.27823
 21
1.35843
  0
LINE
  8
Engraving
 62
   255
 39
0.008
  6
CONTINUOUS
 10
1.27823
 20
1.35843
 30
 0
 11
1.27484
 21
1.35898
  0
LINE
  8
Engraving
 62
   255
 39
0.008
  6
CONTINUOUS
 10
1.27484
 20
1.35898
 30
 0
 11
1.27138
 21
1.35898
  0
LINE
  8
Engraving
 62
   255
 39
0.008
  6
CONTINUOUS
 10
1.27138
 20
1.35898
 30
 0
 11
1.26795
 21
1.35843
  0
LINE
  8
Engraving
 62
   255
 39
0.008
  6
CONTINUOUS
 10
1.26795
 20
1.35843
 30
 0
 11
1.26472
 21
1.35728
  0
LINE
  8
Engraving
 62
   255
 39
0.008
  6
CONTINUOUS
 10
1.26472
 20
1.35728
 30
 0
 11
1.26157
 21
1.35563
  0
LINE
  8
Engraving
 62
   255
 39
0.008
  6
CONTINUOUS
 10
1.26157
 20
1.35563
 30
 0
 11
1.25874
 21
1.35346
  0
LINE
  8
Engraving
 62
   255
 39
0.008
  6
CONTINUOUS
 10
1.25874
 20
1.35346
 30
 0
 11
1.25626
 21
1.35087
  0
LINE
  8
Engraving
 62
   255
 39
0.008
  6
CONTINUOUS
 10
1.25626
 20
1.35087
 30
 0
 11
1.25409
 21
1.34787
  0
LINE
  8
Engraving
 62
   255
 39
0.008
  6
CONTINUOUS
 10
1.25409
 20
1.34787
 30
 0
 11
1.25236
 21
1.34457
  0
LINE
  8
Engraving
 62
   255
 39
0.008
  6
CONTINUOUS
 10
1.25236
 20
1.34457
 30
 0
 11
1.25110
 21
1.34102
  0
LINE
  8
Engraving
 62
   255
 39
0.008
  6
CONTINUOUS
 10
1.25110
 20
1.34102
 30
 0
 11
1.25031
 21
1.33728
  0
LINE
  8
Engraving
 62
   255
 39
0.008
  6
CONTINUOUS
 10
1.25031
 20
1.33728
 30
 0
 11
1.25008
 21
1.33346
  0
LINE
  8
Engraving
 62
   255
 39
0.008
  6
CONTINUOUS
 10
1.25008
 20
1.33346
 30
 0
 11
1.25008
 21
1.33346
  0
LINE
  8
Engraving
 62
   255
 39
0.008
  6
CONTINUOUS
 10
1.25008
 20
1.33346
 30
 0
 11
1.25008
 21
1.26654
  0
LINE
  8
Engraving
 62
   255
 39
0.008
  6
CONTINUOUS
 10
1.25008
 20
1.26654
 30
 0
 11
1.25031
 21
1.26272
  0
LINE
  8
Engraving
 62
   255
 39
0.008
  6
CONTINUOUS
 10
1.25031
 20
1.26272
 30
 0
 11
1.25110
 21
1.25898
  0
LINE
  8
Engraving
 62
   255
 39
0.008
  6
CONTINUOUS
 10
1.25110
 20
1.25898
 30
 0
 11
1.25236
 21
1.25543
  0
LINE
  8
Engraving
 62
   255
 39
0.008
  6
CONTINUOUS
 10
1.25236
 20
1.25543
 30
 0
 11
1.25409
 21
1.25213
  0
LINE
  8
Engraving
 62
   255
 39
0.008
  6
CONTINUOUS
 10
1.25409
 20
1.25213
 30
 0
 11
1.25626
 21
1.24913
  0
LINE
  8
Engraving
 62
   255
 39
0.008
  6
CONTINUOUS
 10
1.25626
 20
1.24913
 30
 0
 11
1.25874
 21
1.24654
  0
LINE
  8
Engraving
 62
   255
 39
0.008
  6
CONTINUOUS
 10
1.25874
 20
1.24654
 30
 0
 11
1.26157
 21
1.24437
  0
LINE
  8
Engraving
 62
   255
 39
0.008
  6
CONTINUOUS
 10
1.26157
 20
1.24437
 30
 0
 11
1.26472
 21
1.24272
  0
LINE
  8
Engraving
 62
   255
 39
0.008
  6
CONTINUOUS
 10
1.26472
 20
1.24272
 30
 0
 11
1.26795
 21
1.24157
  0
LINE
  8
Engraving
 62
   255
 39
0.008
  6
CONTINUOUS
 10
1.26795
 20
1.24157
 30
 0
 11
1.27138
 21
1.24102
  0
LINE
  8
Engraving
 62
   255
 39
0.008
  6
CONTINUOUS
 10
1.27138
 20
1.24102
 30
 0
 11
1.27484
 21
1.24102
  0
LINE
  8
Engraving
 62
   255
 39
0.008
  6
CONTINUOUS
 10
1.27484
 20
1.24102
 30
 0
 11
1.27823
 21
1.24157
  0
LINE
  8
Engraving
 62
   255
 39
0.008
  6
CONTINUOUS
 10
1.27823
 20
1.24157
 30
 0
 11
1.28150
 21
1.24272
  0
LINE
  8
Engraving
 62
   255
 39
0.008
  6
CONTINUOUS
 10
1.28150
 20
1.24272
 30
 0
 11
1.28461
 21
1.24437
  0
LINE
  8
Engraving
 62
   255
 39
0.008
  6
CONTINUOUS
 10
1.28461
 20
1.24437
 30
 0
 11
1.28744
 21
1.24654
  0
LINE
  8
Engraving
 62
   255
 39
0.008
  6
CONTINUOUS
 10
1.28744
 20
1.24654
 30
 0
 11
1.28996
 21
1.24913
  0
LINE
  8
Engraving
 62
   255
 39
0.008
  6
CONTINUOUS
 10
1.28996
 20
1.24913
 30
 0
 11
1.29213
 21
1.25213
  0
LINE
  8
Engraving
 62
   255
 39
0.008
  6
CONTINUOUS
 10
1.29213
 20
1.25213
 30
 0
 11
1.29386
 21
1.25543
  0
LINE
  8
Engraving
 62
   255
 39
0.008
  6
CONTINUOUS
 10
1.29386
 20
1.25543
 30
 0
 11
1.29512
 21
1.25898
  0
LINE
  8
Engraving
 62
   255
 39
0.008
  6
CONTINUOUS
 10
1.29512
 20
1.25898
 30
 0
 11
1.29591
 21
1.26272
  0
LINE
  8
Engraving
 62
   255
 39
0.008
  6
CONTINUOUS
 10
1.29591
 20
1.26272
 30
 0
 11
1.29614
 21
1.26654
  0
LINE
  8
Engraving
 62
   255
 39
0.008
  6
CONTINUOUS
 10
1.29614
 20
1.26654
 30
 0
 11
1.29614
 21
1.26654
  0
LINE
  8
Engraving
 62
   255
 39
0.008
  6
CONTINUOUS
 10
1.37409
 20
1.35906
 30
 0
 11
1.32626
 21
1.35906
  0
LINE
  8
Engraving
 62
   255
 39
0.008
  6
CONTINUOUS
 10
1.32626
 20
1.35906
 30
 0
 11
1.32626
 21
1.24094
  0
LINE
  8
Engraving
 62
   255
 39
0.008
  6
CONTINUOUS
 10
1.32626
 20
1.24094
 30
 0
 11
1.37409
 21
1.24094
  0
LINE
  8
Engraving
 62
   255
 39
0.008
  6
CONTINUOUS
 10
1.32626
 20
1.30000
 30
 0
 11
1.36614
 21
1.30000
  0
LINE
  8
Engraving
 62
   255
 39
0.008
  6
CONTINUOUS
 10
1.40421
 20
1.24094
 30
 0
 11
1.40421
 21
1.35906
  0
LINE
  8
Engraving
 62
   255
 39
0.008
  6
CONTINUOUS
 10
1.40421
 20
1.35906
 30
 0
 11
1.45205
 21
1.24094
  0
LINE
  8
Engraving
 62
   255
 39
0.008
  6
CONTINUOUS
 10
1.45205
 20
1.24094
 30
 0
 11
1.45205
 21
1.35906
  0
LINE
  8
Engraving
 62
   255
 39
0.008
  6
CONTINUOUS
 10
1.48217
 20
1.35906
 30
 0
 11
1.53000
 21
1.35906
  0
LINE
  8
Engraving
 62
   255
 39
0.008
  6
CONTINUOUS
 10
1.53000
 20
1.35906
 30
 0
 11
1.50610
 21
1.35906
  0
LINE
  8
Engraving
 62
   255
 39
0.008
  6
CONTINUOUS
 10
1.50610
 20
1.35906
 30
 0
 11
1.50610
 21
1.24094
  0
CIRCLE
  8
Contour
 62
   7
 39
0.004
  6
CONTINUOUS
 10
3.24252
 20
0.25000
 30
 0
 40
0.11000
  0
CIRCLE
  8
Contour
 62
   7
 39
0.004
  6
CONTINUOUS
 10
3.24252
 20
8.50000
 30
 0
 40
0.11000
  0
CIRCLE
  8
Contour
 62
   7
 39
0.004
  6
CONTINUOUS
 10
0.24252
 20
0.25000
 30
 0
 40
0.11000
  0
CIRCLE
  8
Contour
 62
   7
 39
0.004
  6
CONTINUOUS
 10
0.24252
 20
8.50000
 30
 0
 40
0.11000
  0
CIRCLE
  8
Contour
 62
   7
 39
0.004
  6
CONTINUOUS
 10
0.88252
 20
6.51681
 30
 0
 40
0.13748
  0
CIRCLE
  8
Contour
 62
   7
 39
0.004
  6
CONTINUOUS
 10
2.60252
 20
7.82701
 30
 0
 40
0.13748
  0
CIRCLE
  8
Contour
 62
   7
 39
0.004
  6
CONTINUOUS
 10
0.88252
 20
7.82701
 30
 0
 40
0.13748
  0
CIRCLE
  8
Contour
 62
   7
 39
0.004
  6
CONTINUOUS
 10
2.60252
 20
6.51681
 30
 0
 40
0.13748
  0
CIRCLE
  8
Contour
 62
   7
 39
0.004
  6
CONTINUOUS
 10
0.88252
 20
5.20661
 30
 0
 40
0.13748
  0
CIRCLE
  8
Contour
 62
   7
 39
0.004
  6
CONTINUOUS
 10
2.60252
 20
5.20661
 30
 0
 40
0.13748
  0
CIRCLE
  8
Contour
 62
   7
 39
0.004
  6
CONTINUOUS
 10
0.88252
 20
3.89642
 30
 0
 40
0.13748
  0
CIRCLE
  8
Contour
 62
   7
 39
0.004
  6
CONTINUOUS
 10
2.18004
 20
0.90000
 30
 0
 40
0.18748
  0
CIRCLE
  8
Contour
 62
   7
 39
0.004
  6
CONTINUOUS
 10
3.05504
 20
0.90000
 30
 0
 40
0.18748
  0
CIRCLE
  8
Contour
 62
   7
 39
0.004
  6
CONTINUOUS
 10
0.43000
 20
0.90000
 30
 0
 40
0.18748
  0
CIRCLE
  8
Contour
 62
   7
 39
0.004
  6
CONTINUOUS
 10
1.30500
 20
0.90000
 30
 0
 40
0.18748
  0
LINE
  8
Reference_points
 62
   1
 39
0.004
  6
CONTINUOUS
 10
-0.03937
 20
0.00000
 30
 0
 11
0.03937
 21
0.00000
  0
LINE
  8
Reference_points
 62
   1
 39
0.004
  6
CONTINUOUS
 10
0.00000
 20
-0.03937
 30
 0
 11
0.00000
 21
0.03937
  0
LINE
  8
Reference_points
 62
   1
 39
0.004
  6
CONTINUOUS
 10
3.20315
 20
0.25000
 30
 0
 11
3.28189
 21
0.25000
  0
LINE
  8
Reference_points
 62
   1
 39
0.004
  6
CONTINUOUS
 10
3.24252
 20
0.21063
 30
 0
 11
3.24252
 21
0.28937
  0
LINE
  8
Reference_points
 62
   1
 39
0.004
  6
CONTINUOUS
 10
3.20315
 20
8.50000
 30
 0
 11
3.28189
 21
8.50000
  0
LINE
  8
Reference_points
 62
   1
 39
0.004
  6
CONTINUOUS
 10
3.24252
 20
8.46063
 30
 0
 11
3.24252
 21
8.53937
  0
LINE
  8
Reference_points
 62
   1
 39
0.004
  6
CONTINUOUS
 10
0.20315
 20
0.25000
 30
 0
 11
0.28189
 21
0.25000
  0
LINE
  8
Reference_points
 62
   1
 39
0.004
  6
CONTINUOUS
 10
0.24252
 20
0.21063
 30
 0
 11
0.24252
 21
0.28937
  0
LINE
  8
Reference_points
 62
   1
 39
0.004
  6
CONTINUOUS
 10
1.70315
 20
0.32500
 30
 0
 11
1.78189
 21
0.32500
  0
LINE
  8
Reference_points
 62
   1
 39
0.004
  6
CONTINUOUS
 10
1.74252
 20
0.28563
 30
 0
 11
1.74252
 21
0.36437
  0
LINE
  8
Reference_points
 62
   1
 39
0.004
  6
CONTINUOUS
 10
0.20315
 20
8.50000
 30
 0
 11
0.28189
 21
8.50000
  0
LINE
  8
Reference_points
 62
   1
 39
0.004
  6
CONTINUOUS
 10
0.24252
 20
8.46063
 30
 0
 11
0.24252
 21
8.53937
  0
LINE
  8
Reference_points
 62
   1
 39
0.004
  6
CONTINUOUS
 10
0.84315
 20
7.10358
 30
 0
 11
0.92189
 21
7.10358
  0
LINE
  8
Reference_points
 62
   1
 39
0.004
  6
CONTINUOUS
 10
0.88252
 20
7.06421
 30
 0
 11
0.88252
 21
7.14295
  0
LINE
  8
Reference_points
 62
   1
 39
0.004
  6
CONTINUOUS
 10
0.84315
 20
6.51681
 30
 0
 11
0.92189
 21
6.51681
  0
LINE
  8
Reference_points
 62
   1
 39
0.004
  6
CONTINUOUS
 10
0.88252
 20
6.47744
 30
 0
 11
0.88252
 21
6.55618
  0
LINE
  8
Reference_points
 62
   1
 39
0.004
  6
CONTINUOUS
 10
0.84315
 20
6.54929
 30
 0
 11
0.92189
 21
6.54929
  0
LINE
  8
Reference_points
 62
   1
 39
0.004
  6
CONTINUOUS
 10
0.88252
 20
6.50992
 30
 0
 11
0.88252
 21
6.58866
  0
LINE
  8
Reference_points
 62
   1
 39
0.004
  6
CONTINUOUS
 10
2.56315
 20
8.41382
 30
 0
 11
2.64189
 21
8.41382
  0
LINE
  8
Reference_points
 62
   1
 39
0.004
  6
CONTINUOUS
 10
2.60252
 20
8.37445
 30
 0
 11
2.60252
 21
8.45319
  0
LINE
  8
Reference_points
 62
   1
 39
0.004
  6
CONTINUOUS
 10
2.56315
 20
7.82701
 30
 0
 11
2.64189
 21
7.82701
  0
LINE
  8
Reference_points
 62
   1
 39
0.004
  6
CONTINUOUS
 10
2.60252
 20
7.78764
 30
 0
 11
2.60252
 21
7.86638
  0
LINE
  8
Reference_points
 62
   1
 39
0.004
  6
CONTINUOUS
 10
2.56315
 20
7.85949
 30
 0
 11
2.64189
 21
7.85949
  0
LINE
  8
Reference_points
 62
   1
 39
0.004
  6
CONTINUOUS
 10
2.60252
 20
7.82012
 30
 0
 11
2.60252
 21
7.89886
  0
LINE
  8
Reference_points
 62
   1
 39
0.004
  6
CONTINUOUS
 10
0.84315
 20
8.41382
 30
 0
 11
0.92189
 21
8.41382
  0
LINE
  8
Reference_points
 62
   1
 39
0.004
  6
CONTINUOUS
 10
0.88252
 20
8.37445
 30
 0
 11
0.88252
 21
8.45319
  0
LINE
  8
Reference_points
 62
   1
 39
0.004
  6
CONTINUOUS
 10
0.84315
 20
7.82701
 30
 0
 11
0.92189
 21
7.82701
  0
LINE
  8
Reference_points
 62
   1
 39
0.004
  6
CONTINUOUS
 10
0.88252
 20
7.78764
 30
 0
 11
0.88252
 21
7.86638
  0
LINE
  8
Reference_points
 62
   1
 39
0.004
  6
CONTINUOUS
 10
0.84315
 20
7.85949
 30
 0
 11
0.92189
 21
7.85949
  0
LINE
  8
Reference_points
 62
   1
 39
0.004
  6
CONTINUOUS
 10
0.88252
 20
7.82012
 30
 0
 11
0.88252
 21
7.89886
  0
LINE
  8
Reference_points
 62
   1
 39
0.004
  6
CONTINUOUS
 10
2.56315
 20
7.10358
 30
 0
 11
2.64189
 21
7.10358
  0
LINE
  8
Reference_points
 62
   1
 39
0.004
  6
CONTINUOUS
 10
2.60252
 20
7.06421
 30
 0
 11
2.60252
 21
7.14295
  0
LINE
  8
Reference_points
 62
   1
 39
0.004
  6
CONTINUOUS
 10
2.56315
 20
6.51681
 30
 0
 11
2.64189
 21
6.51681
  0
LINE
  8
Reference_points
 62
   1
 39
0.004
  6
CONTINUOUS
 10
2.60252
 20
6.47744
 30
 0
 11
2.60252
 21
6.55618
  0
LINE
  8
Reference_points
 62
   1
 39
0.004
  6
CONTINUOUS
 10
2.56315
 20
6.54929
 30
 0
 11
2.64189
 21
6.54929
  0
LINE
  8
Reference_points
 62
   1
 39
0.004
  6
CONTINUOUS
 10
2.60252
 20
6.50992
 30
 0
 11
2.60252
 21
6.58866
  0
LINE
  8
Reference_points
 62
   1
 39
0.004
  6
CONTINUOUS
 10
0.84315
 20
5.79339
 30
 0
 11
0.92189
 21
5.79339
  0
LINE
  8
Reference_points
 62
   1
 39
0.004
  6
CONTINUOUS
 10
0.88252
 20
5.75402
 30
 0
 11
0.88252
 21
5.83276
  0
LINE
  8
Reference_points
 62
   1
 39
0.004
  6
CONTINUOUS
 10
0.84315
 20
5.20661
 30
 0
 11
0.92189
 21
5.20661
  0
LINE
  8
Reference_points
 62
   1
 39
0.004
  6
CONTINUOUS
 10
0.88252
 20
5.16724
 30
 0
 11
0.88252
 21
5.24598
  0
LINE
  8
Reference_points
 62
   1
 39
0.004
  6
CONTINUOUS
 10
0.84315
 20
5.23909
 30
 0
 11
0.92189
 21
5.23909
  0
LINE
  8
Reference_points
 62
   1
 39
0.004
  6
CONTINUOUS
 10
0.88252
 20
5.19972
 30
 0
 11
0.88252
 21
5.27846
  0
LINE
  8
Reference_points
 62
   1
 39
0.004
  6
CONTINUOUS
 10
2.56315
 20
5.79339
 30
 0
 11
2.64189
 21
5.79339
  0
LINE
  8
Reference_points
 62
   1
 39
0.004
  6
CONTINUOUS
 10
2.60252
 20
5.75402
 30
 0
 11
2.60252
 21
5.83276
  0
LINE
  8
Reference_points
 62
   1
 39
0.004
  6
CONTINUOUS
 10
2.56315
 20
5.20661
 30
 0
 11
2.64189
 21
5.20661
  0
LINE
  8
Reference_points
 62
   1
 39
0.004
  6
CONTINUOUS
 10
2.60252
 20
5.16724
 30
 0
 11
2.60252
 21
5.24598
  0
LINE
  8
Reference_points
 62
   1
 39
0.004
  6
CONTINUOUS
 10
2.56315
 20
5.23909
 30
 0
 11
2.64189
 21
5.23909
  0
LINE
  8
Reference_points
 62
   1
 39
0.004
  6
CONTINUOUS
 10
2.60252
 20
5.19972
 30
 0
 11
2.60252
 21
5.27846
  0
LINE
  8
Reference_points
 62
   1
 39
0.004
  6
CONTINUOUS
 10
0.84315
 20
4.48319
 30
 0
 11
0.92189
 21
4.48319
  0
LINE
  8
Reference_points
 62
   1
 39
0.004
  6
CONTINUOUS
 10
0.88252
 20
4.44382
 30
 0
 11
0.88252
 21
4.52256
  0
LINE
  8
Reference_points
 62
   1
 39
0.004
  6
CONTINUOUS
 10
0.84315
 20
3.89642
 30
 0
 11
0.92189
 21
3.89642
  0
LINE
  8
Reference_points
 62
   1
 39
0.004
  6
CONTINUOUS
 10
0.88252
 20
3.85705
 30
 0
 11
0.88252
 21
3.93579
  0
LINE
  8
Reference_points
 62
   1
 39
0.004
  6
CONTINUOUS
 10
0.84315
 20
3.92890
 30
 0
 11
0.92189
 21
3.92890
  0
LINE
  8
Reference_points
 62
   1
 39
0.004
  6
CONTINUOUS
 10
0.88252
 20
3.88953
 30
 0
 11
0.88252
 21
3.96827
  0
LINE
  8
Reference_points
 62
   1
 39
0.004
  6
CONTINUOUS
 10
2.14067
 20
0.90000
 30
 0
 11
2.21941
 21
0.90000
  0
LINE
  8
Reference_points
 62
   1
 39
0.004
  6
CONTINUOUS
 10
2.18004
 20
0.86063
 30
 0
 11
2.18004
 21
0.93937
  0
LINE
  8
Reference_points
 62
   1
 39
0.004
  6
CONTINUOUS
 10
3.01567
 20
0.90000
 30
 0
 11
3.09441
 21
0.90000
  0
LINE
  8
Reference_points
 62
   1
 39
0.004
  6
CONTINUOUS
 10
3.05504
 20
0.86063
 30
 0
 11
3.05504
 21
0.93937
  0
LINE
  8
Reference_points
 62
   1
 39
0.004
  6
CONTINUOUS
 10
0.39063
 20
0.90000
 30
 0
 11
0.46937
 21
0.90000
  0
LINE
  8
Reference_points
 62
   1
 39
0.004
  6
CONTINUOUS
 10
0.43000
 20
0.86063
 30
 0
 11
0.43000
 21
0.93937
  0
LINE
  8
Reference_points
 62
   1
 39
0.004
  6
CONTINUOUS
 10
1.26563
 20
0.90000
 30
 0
 11
1.34437
 21
0.90000
  0
LINE
  8
Reference_points
 62
   1
 39
0.004
  6
CONTINUOUS
 10
1.30500
 20
0.86063
 30
 0
 11
1.30500
 21
0.93937
  0
LINE
  8
Reference_points
 62
   1
 39
0.004
  6
CONTINUOUS
 10
0.39063
 20
1.30000
 30
 0
 11
0.46937
 21
1.30000
  0
LINE
  8
Reference_points
 62
   1
 39
0.004
  6
CONTINUOUS
 10
0.43000
 20
1.26063
 30
 0
 11
0.43000
 21
1.33937
  0
LINE
  8
Reference_points
 62
   1
 39
0.004
  6
CONTINUOUS
 10
2.14067
 20
1.30000
 30
 0
 11
2.21941
 21
1.30000
  0
LINE
  8
Reference_points
 62
   1
 39
0.004
  6
CONTINUOUS
 10
2.18004
 20
1.26063
 30
 0
 11
2.18004
 21
1.33937
  0
LINE
  8
Reference_points
 62
   1
 39
0.004
  6
CONTINUOUS
 10
3.01567
 20
1.30000
 30
 0
 11
3.09441
 21
1.30000
  0
LINE
  8
Reference_points
 62
   1
 39
0.004
  6
CONTINUOUS
 10
3.05504
 20
1.26063
 30
 0
 11
3.05504
 21
1.33937
  0
LINE
  8
Reference_points
 62
   1
 39
0.004
  6
CONTINUOUS
 10
1.26563
 20
1.30000
 30
 0
 11
1.34437
 21
1.30000
  0
LINE
  8
Reference_points
 62
   1
 39
0.004
  6
CONTINUOUS
 10
1.30500
 20
1.26063
 30
 0
 11
1.30500
 21
1.33937
  0
ENDSEC
  0
EOF
