  0
SECTION
  2
HEADER
  9
$MEASUREMENT
  70
  1
  9
$INSUNITS
  70
  4
  0
ENDSEC
  0
SECTION
  2
TABLES
  0
TABLE
  2
LTYPE
 70
     1
  0
LTYPE
  2
CONTINUOUS
 70
    64
  3
Ausgezogene Linie
 72
    65
 73
     0
 40
0.0
  0
ENDTAB
  0
TABLE
  2
LAYER
 70
     3
  0
LAYER
  2
Kontur
 70
    64
 62
     7
  6
CONTINUOUS
  0
LAYER
  2
Gravur
 70
    64
 62
     7
  6
CONTINUOUS
  0
LAYER
  2
Bezugspunkte
 70
    64
 62
     1
  6
CONTINUOUS
  0
ENDTAB
  0
TABLE
  2
STYLE
 70
     1
  0
STYLE
  2
TXT
 70
    64
 40
0.0
 41
1.0
 50
0.0
 71
     0
 42
3.500000
  3
TXT
  0
ENDTAB
  0
ENDSEC
  0
SECTION
  2
BLOCKS
  0
ENDSEC
  0
SECTION
  2
ENTITIES
  0
LINE
  8
Kontur
 62
   7
 39
0.100
  6
CONTINUOUS
 10
44.45000
 20
221.87000
 30
 0
 11
0.00000
 21
221.87000
  0
LINE
  8
Kontur
 62
   7
 39
0.100
  6
CONTINUOUS
 10
0.00000
 20
221.87000
 30
 0
 11
0.00000
 21
221.87000
  0
LINE
  8
Kontur
 62
   7
 39
0.100
  6
CONTINUOUS
 10
0.00000
 20
221.87000
 30
 0
 11
0.00000
 21
0.00000
  0
LINE
  8
Kontur
 62
   7
 39
0.100
  6
CONTINUOUS
 10
0.00000
 20
0.00000
 30
 0
 11
0.00000
 21
0.00000
  0
LINE
  8
Kontur
 62
   7
 39
0.100
  6
CONTINUOUS
 10
0.00000
 20
0.00000
 30
 0
 11
44.45000
 21
0.00000
  0
LINE
  8
Kontur
 62
   7
 39
0.100
  6
CONTINUOUS
 10
44.45000
 20
0.00000
 30
 0
 11
44.45000
 21
0.00000
  0
LINE
  8
Kontur
 62
   7
 39
0.100
  6
CONTINUOUS
 10
44.45000
 20
0.00000
 30
 0
 11
44.45000
 21
221.87000
  0
LINE
  8
Kontur
 62
   7
 39
0.100
  6
CONTINUOUS
 10
44.45000
 20
221.87000
 30
 0
 11
44.45000
 21
221.87000
  0
LINE
  8
Gravur
 62
   255
 39
0.400
  6
CONTINUOUS
 10
17.07800
 20
6.64000
 30
 0
 11
17.07800
 21
9.04000
  0
LINE
  8
Gravur
 62
   255
 39
0.400
  6
CONTINUOUS
 10
17.07800
 20
9.04000
 30
 0
 11
17.46200
 21
9.04000
  0
LINE
  8
Gravur
 62
   255
 39
0.400
  6
CONTINUOUS
 10
17.46200
 20
9.04000
 30
 0
 11
17.53200
 21
9.03400
  0
LINE
  8
Gravur
 62
   255
 39
0.400
  6
CONTINUOUS
 10
17.53200
 20
9.03400
 30
 0
 11
17.60000
 21
9.01500
  0
LINE
  8
Gravur
 62
   255
 39
0.400
  6
CONTINUOUS
 10
17.60000
 20
9.01500
 30
 0
 11
17.66600
 21
8.98400
  0
LINE
  8
Gravur
 62
   255
 39
0.400
  6
CONTINUOUS
 10
17.66600
 20
8.98400
 30
 0
 11
17.72800
 21
8.94100
  0
LINE
  8
Gravur
 62
   255
 39
0.400
  6
CONTINUOUS
 10
17.72800
 20
8.94100
 30
 0
 11
17.78300
 21
8.88800
  0
LINE
  8
Gravur
 62
   255
 39
0.400
  6
CONTINUOUS
 10
17.78300
 20
8.88800
 30
 0
 11
17.83200
 21
8.82500
  0
LINE
  8
Gravur
 62
   255
 39
0.400
  6
CONTINUOUS
 10
17.83200
 20
8.82500
 30
 0
 11
17.87200
 21
8.75400
  0
LINE
  8
Gravur
 62
   255
 39
0.400
  6
CONTINUOUS
 10
17.87200
 20
8.75400
 30
 0
 11
17.90400
 21
8.67600
  0
LINE
  8
Gravur
 62
   255
 39
0.400
  6
CONTINUOUS
 10
17.90400
 20
8.67600
 30
 0
 11
17.92700
 21
8.59300
  0
LINE
  8
Gravur
 62
   255
 39
0.400
  6
CONTINUOUS
 10
17.92700
 20
8.59300
 30
 0
 11
17.94000
 21
8.50600
  0
LINE
  8
Gravur
 62
   255
 39
0.400
  6
CONTINUOUS
 10
17.94000
 20
8.50600
 30
 0
 11
17.94200
 21
8.44000
  0
LINE
  8
Gravur
 62
   255
 39
0.400
  6
CONTINUOUS
 10
17.94200
 20
8.44000
 30
 0
 11
17.94200
 21
7.24000
  0
LINE
  8
Gravur
 62
   255
 39
0.400
  6
CONTINUOUS
 10
17.94200
 20
7.24000
 30
 0
 11
17.93700
 21
7.15300
  0
LINE
  8
Gravur
 62
   255
 39
0.400
  6
CONTINUOUS
 10
17.93700
 20
7.15300
 30
 0
 11
17.92200
 21
7.06700
  0
LINE
  8
Gravur
 62
   255
 39
0.400
  6
CONTINUOUS
 10
17.92200
 20
7.06700
 30
 0
 11
17.89700
 21
6.98500
  0
LINE
  8
Gravur
 62
   255
 39
0.400
  6
CONTINUOUS
 10
17.89700
 20
6.98500
 30
 0
 11
17.86300
 21
6.90800
  0
LINE
  8
Gravur
 62
   255
 39
0.400
  6
CONTINUOUS
 10
17.86300
 20
6.90800
 30
 0
 11
17.82000
 21
6.83900
  0
LINE
  8
Gravur
 62
   255
 39
0.400
  6
CONTINUOUS
 10
17.82000
 20
6.83900
 30
 0
 11
17.77000
 21
6.77800
  0
LINE
  8
Gravur
 62
   255
 39
0.400
  6
CONTINUOUS
 10
17.77000
 20
6.77800
 30
 0
 11
17.71300
 21
6.72700
  0
LINE
  8
Gravur
 62
   255
 39
0.400
  6
CONTINUOUS
 10
17.71300
 20
6.72700
 30
 0
 11
17.65100
 21
6.68700
  0
LINE
  8
Gravur
 62
   255
 39
0.400
  6
CONTINUOUS
 10
17.65100
 20
6.68700
 30
 0
 11
17.58400
 21
6.65900
  0
LINE
  8
Gravur
 62
   255
 39
0.400
  6
CONTINUOUS
 10
17.58400
 20
6.65900
 30
 0
 11
17.51500
 21
6.64300
  0
LINE
  8
Gravur
 62
   255
 39
0.400
  6
CONTINUOUS
 10
17.51500
 20
6.64300
 30
 0
 11
17.46200
 21
6.64000
  0
LINE
  8
Gravur
 62
   255
 39
0.400
  6
CONTINUOUS
 10
17.46200
 20
6.64000
 30
 0
 11
17.07800
 21
6.64000
  0
LINE
  8
Gravur
 62
   255
 39
0.400
  6
CONTINUOUS
 10
18.48600
 20
7.24000
 30
 0
 11
18.49200
 21
7.15100
  0
LINE
  8
Gravur
 62
   255
 39
0.400
  6
CONTINUOUS
 10
18.49200
 20
7.15100
 30
 0
 11
18.50800
 21
7.06300
  0
LINE
  8
Gravur
 62
   255
 39
0.400
  6
CONTINUOUS
 10
18.50800
 20
7.06300
 30
 0
 11
18.53300
 21
6.98000
  0
LINE
  8
Gravur
 62
   255
 39
0.400
  6
CONTINUOUS
 10
18.53300
 20
6.98000
 30
 0
 11
18.56900
 21
6.90200
  0
LINE
  8
Gravur
 62
   255
 39
0.400
  6
CONTINUOUS
 10
18.56900
 20
6.90200
 30
 0
 11
18.61400
 21
6.83200
  0
LINE
  8
Gravur
 62
   255
 39
0.400
  6
CONTINUOUS
 10
18.61400
 20
6.83200
 30
 0
 11
18.66700
 21
6.77100
  0
LINE
  8
Gravur
 62
   255
 39
0.400
  6
CONTINUOUS
 10
18.66700
 20
6.77100
 30
 0
 11
18.72600
 21
6.72000
  0
LINE
  8
Gravur
 62
   255
 39
0.400
  6
CONTINUOUS
 10
18.72600
 20
6.72000
 30
 0
 11
18.79100
 21
6.68100
  0
LINE
  8
Gravur
 62
   255
 39
0.400
  6
CONTINUOUS
 10
18.79100
 20
6.68100
 30
 0
 11
18.85900
 21
6.65500
  0
LINE
  8
Gravur
 62
   255
 39
0.400
  6
CONTINUOUS
 10
18.85900
 20
6.65500
 30
 0
 11
18.93000
 21
6.64200
  0
LINE
  8
Gravur
 62
   255
 39
0.400
  6
CONTINUOUS
 10
18.93000
 20
6.64200
 30
 0
 11
19.00200
 21
6.64200
  0
LINE
  8
Gravur
 62
   255
 39
0.400
  6
CONTINUOUS
 10
19.00200
 20
6.64200
 30
 0
 11
19.07300
 21
6.65500
  0
LINE
  8
Gravur
 62
   255
 39
0.400
  6
CONTINUOUS
 10
19.07300
 20
6.65500
 30
 0
 11
19.14100
 21
6.68100
  0
LINE
  8
Gravur
 62
   255
 39
0.400
  6
CONTINUOUS
 10
19.14100
 20
6.68100
 30
 0
 11
19.20600
 21
6.72000
  0
LINE
  8
Gravur
 62
   255
 39
0.400
  6
CONTINUOUS
 10
19.20600
 20
6.72000
 30
 0
 11
19.26500
 21
6.77100
  0
LINE
  8
Gravur
 62
   255
 39
0.400
  6
CONTINUOUS
 10
19.26500
 20
6.77100
 30
 0
 11
19.31800
 21
6.83200
  0
LINE
  8
Gravur
 62
   255
 39
0.400
  6
CONTINUOUS
 10
19.31800
 20
6.83200
 30
 0
 11
19.36300
 21
6.90200
  0
LINE
  8
Gravur
 62
   255
 39
0.400
  6
CONTINUOUS
 10
19.36300
 20
6.90200
 30
 0
 11
19.39900
 21
6.98000
  0
LINE
  8
Gravur
 62
   255
 39
0.400
  6
CONTINUOUS
 10
19.39900
 20
6.98000
 30
 0
 11
19.42400
 21
7.06300
  0
LINE
  8
Gravur
 62
   255
 39
0.400
  6
CONTINUOUS
 10
19.42400
 20
7.06300
 30
 0
 11
19.44000
 21
7.15100
  0
LINE
  8
Gravur
 62
   255
 39
0.400
  6
CONTINUOUS
 10
19.44000
 20
7.15100
 30
 0
 11
19.44600
 21
7.24000
  0
LINE
  8
Gravur
 62
   255
 39
0.400
  6
CONTINUOUS
 10
19.44600
 20
7.24000
 30
 0
 11
19.44600
 21
7.24000
  0
LINE
  8
Gravur
 62
   255
 39
0.400
  6
CONTINUOUS
 10
19.44600
 20
7.24000
 30
 0
 11
19.44100
 21
7.32600
  0
LINE
  8
Gravur
 62
   255
 39
0.400
  6
CONTINUOUS
 10
19.44100
 20
7.32600
 30
 0
 11
19.42700
 21
7.40900
  0
LINE
  8
Gravur
 62
   255
 39
0.400
  6
CONTINUOUS
 10
19.42700
 20
7.40900
 30
 0
 11
19.40400
 21
7.49000
  0
LINE
  8
Gravur
 62
   255
 39
0.400
  6
CONTINUOUS
 10
19.40400
 20
7.49000
 30
 0
 11
19.37100
 21
7.56500
  0
LINE
  8
Gravur
 62
   255
 39
0.400
  6
CONTINUOUS
 10
19.37100
 20
7.56500
 30
 0
 11
19.32900
 21
7.63400
  0
LINE
  8
Gravur
 62
   255
 39
0.400
  6
CONTINUOUS
 10
19.32900
 20
7.63400
 30
 0
 11
19.28100
 21
7.69400
  0
LINE
  8
Gravur
 62
   255
 39
0.400
  6
CONTINUOUS
 10
19.28100
 20
7.69400
 30
 0
 11
19.22600
 21
7.74600
  0
LINE
  8
Gravur
 62
   255
 39
0.400
  6
CONTINUOUS
 10
19.22600
 20
7.74600
 30
 0
 11
19.16600
 21
7.78700
  0
LINE
  8
Gravur
 62
   255
 39
0.400
  6
CONTINUOUS
 10
19.16600
 20
7.78700
 30
 0
 11
19.10100
 21
7.81600
  0
LINE
  8
Gravur
 62
   255
 39
0.400
  6
CONTINUOUS
 10
19.10100
 20
7.81600
 30
 0
 11
19.03500
 21
7.83400
  0
LINE
  8
Gravur
 62
   255
 39
0.400
  6
CONTINUOUS
 10
19.03500
 20
7.83400
 30
 0
 11
18.96600
 21
7.84000
  0
LINE
  8
Gravur
 62
   255
 39
0.400
  6
CONTINUOUS
 10
18.96600
 20
7.84000
 30
 0
 11
18.96600
 21
7.84000
  0
LINE
  8
Gravur
 62
   255
 39
0.400
  6
CONTINUOUS
 10
18.96600
 20
7.84000
 30
 0
 11
18.89500
 21
7.84700
  0
LINE
  8
Gravur
 62
   255
 39
0.400
  6
CONTINUOUS
 10
18.89500
 20
7.84700
 30
 0
 11
18.82400
 21
7.86700
  0
LINE
  8
Gravur
 62
   255
 39
0.400
  6
CONTINUOUS
 10
18.82400
 20
7.86700
 30
 0
 11
18.75800
 21
7.89900
  0
LINE
  8
Gravur
 62
   255
 39
0.400
  6
CONTINUOUS
 10
18.75800
 20
7.89900
 30
 0
 11
18.69600
 21
7.94400
  0
LINE
  8
Gravur
 62
   255
 39
0.400
  6
CONTINUOUS
 10
18.69600
 20
7.94400
 30
 0
 11
18.64000
 21
8.00000
  0
LINE
  8
Gravur
 62
   255
 39
0.400
  6
CONTINUOUS
 10
18.64000
 20
8.00000
 30
 0
 11
18.59100
 21
8.06600
  0
LINE
  8
Gravur
 62
   255
 39
0.400
  6
CONTINUOUS
 10
18.59100
 20
8.06600
 30
 0
 11
18.55000
 21
8.14000
  0
LINE
  8
Gravur
 62
   255
 39
0.400
  6
CONTINUOUS
 10
18.55000
 20
8.14000
 30
 0
 11
18.51900
 21
8.22100
  0
LINE
  8
Gravur
 62
   255
 39
0.400
  6
CONTINUOUS
 10
18.51900
 20
8.22100
 30
 0
 11
18.49800
 21
8.30600
  0
LINE
  8
Gravur
 62
   255
 39
0.400
  6
CONTINUOUS
 10
18.49800
 20
8.30600
 30
 0
 11
18.48800
 21
8.39500
  0
LINE
  8
Gravur
 62
   255
 39
0.400
  6
CONTINUOUS
 10
18.48800
 20
8.39500
 30
 0
 11
18.48800
 21
8.48500
  0
LINE
  8
Gravur
 62
   255
 39
0.400
  6
CONTINUOUS
 10
18.48800
 20
8.48500
 30
 0
 11
18.49800
 21
8.57400
  0
LINE
  8
Gravur
 62
   255
 39
0.400
  6
CONTINUOUS
 10
18.49800
 20
8.57400
 30
 0
 11
18.51900
 21
8.65900
  0
LINE
  8
Gravur
 62
   255
 39
0.400
  6
CONTINUOUS
 10
18.51900
 20
8.65900
 30
 0
 11
18.55000
 21
8.74000
  0
LINE
  8
Gravur
 62
   255
 39
0.400
  6
CONTINUOUS
 10
18.55000
 20
8.74000
 30
 0
 11
18.59100
 21
8.81400
  0
LINE
  8
Gravur
 62
   255
 39
0.400
  6
CONTINUOUS
 10
18.59100
 20
8.81400
 30
 0
 11
18.64000
 21
8.88000
  0
LINE
  8
Gravur
 62
   255
 39
0.400
  6
CONTINUOUS
 10
18.64000
 20
8.88000
 30
 0
 11
18.69600
 21
8.93600
  0
LINE
  8
Gravur
 62
   255
 39
0.400
  6
CONTINUOUS
 10
18.69600
 20
8.93600
 30
 0
 11
18.75800
 21
8.98100
  0
LINE
  8
Gravur
 62
   255
 39
0.400
  6
CONTINUOUS
 10
18.75800
 20
8.98100
 30
 0
 11
18.82400
 21
9.01300
  0
LINE
  8
Gravur
 62
   255
 39
0.400
  6
CONTINUOUS
 10
18.82400
 20
9.01300
 30
 0
 11
18.89500
 21
9.03300
  0
LINE
  8
Gravur
 62
   255
 39
0.400
  6
CONTINUOUS
 10
18.89500
 20
9.03300
 30
 0
 11
18.96600
 21
9.04000
  0
LINE
  8
Gravur
 62
   255
 39
0.400
  6
CONTINUOUS
 10
18.96600
 20
9.04000
 30
 0
 11
18.96600
 21
9.04000
  0
LINE
  8
Gravur
 62
   255
 39
0.400
  6
CONTINUOUS
 10
18.96600
 20
9.04000
 30
 0
 11
19.03600
 21
9.03400
  0
LINE
  8
Gravur
 62
   255
 39
0.400
  6
CONTINUOUS
 10
19.03600
 20
9.03400
 30
 0
 11
19.10400
 21
9.01500
  0
LINE
  8
Gravur
 62
   255
 39
0.400
  6
CONTINUOUS
 10
19.10400
 20
9.01500
 30
 0
 11
19.17000
 21
8.98400
  0
LINE
  8
Gravur
 62
   255
 39
0.400
  6
CONTINUOUS
 10
19.17000
 20
8.98400
 30
 0
 11
19.23200
 21
8.94100
  0
LINE
  8
Gravur
 62
   255
 39
0.400
  6
CONTINUOUS
 10
19.23200
 20
8.94100
 30
 0
 11
19.28700
 21
8.88800
  0
LINE
  8
Gravur
 62
   255
 39
0.400
  6
CONTINUOUS
 10
19.28700
 20
8.88800
 30
 0
 11
19.33600
 21
8.82500
  0
LINE
  8
Gravur
 62
   255
 39
0.400
  6
CONTINUOUS
 10
19.33600
 20
8.82500
 30
 0
 11
19.37600
 21
8.75400
  0
LINE
  8
Gravur
 62
   255
 39
0.400
  6
CONTINUOUS
 10
19.37600
 20
8.75400
 30
 0
 11
19.40800
 21
8.67600
  0
LINE
  8
Gravur
 62
   255
 39
0.400
  6
CONTINUOUS
 10
19.40800
 20
8.67600
 30
 0
 11
19.43100
 21
8.59300
  0
LINE
  8
Gravur
 62
   255
 39
0.400
  6
CONTINUOUS
 10
19.43100
 20
8.59300
 30
 0
 11
19.44400
 21
8.50600
  0
LINE
  8
Gravur
 62
   255
 39
0.400
  6
CONTINUOUS
 10
19.44400
 20
8.50600
 30
 0
 11
19.44600
 21
8.44000
  0
LINE
  8
Gravur
 62
   255
 39
0.400
  6
CONTINUOUS
 10
19.97400
 20
9.04000
 30
 0
 11
19.97400
 21
6.64000
  0
LINE
  8
Gravur
 62
   255
 39
0.400
  6
CONTINUOUS
 10
19.97400
 20
6.64000
 30
 0
 11
20.59800
 21
6.64000
  0
LINE
  8
Gravur
 62
   255
 39
0.400
  6
CONTINUOUS
 10
21.14200
 20
7.84000
 30
 0
 11
22.48600
 21
7.84000
  0
LINE
  8
Gravur
 62
   255
 39
0.400
  6
CONTINUOUS
 10
23.03000
 20
6.64000
 30
 0
 11
23.03000
 21
9.04000
  0
LINE
  8
Gravur
 62
   255
 39
0.400
  6
CONTINUOUS
 10
23.03000
 20
9.04000
 30
 0
 11
23.65400
 21
7.36000
  0
LINE
  8
Gravur
 62
   255
 39
0.400
  6
CONTINUOUS
 10
23.65400
 20
7.36000
 30
 0
 11
24.27800
 21
9.04000
  0
LINE
  8
Gravur
 62
   255
 39
0.400
  6
CONTINUOUS
 10
24.27800
 20
9.04000
 30
 0
 11
24.27800
 21
6.64000
  0
LINE
  8
Gravur
 62
   255
 39
0.400
  6
CONTINUOUS
 10
24.82200
 20
6.64000
 30
 0
 11
25.39800
 21
9.04000
  0
LINE
  8
Gravur
 62
   255
 39
0.400
  6
CONTINUOUS
 10
25.39800
 20
9.04000
 30
 0
 11
25.97400
 21
6.64000
  0
LINE
  8
Gravur
 62
   255
 39
0.400
  6
CONTINUOUS
 10
25.01400
 20
7.36000
 30
 0
 11
25.78200
 21
7.36000
  0
LINE
  8
Gravur
 62
   255
 39
0.400
  6
CONTINUOUS
 10
26.51800
 20
6.64000
 30
 0
 11
26.51800
 21
9.04000
  0
LINE
  8
Gravur
 62
   255
 39
0.400
  6
CONTINUOUS
 10
26.51800
 20
9.04000
 30
 0
 11
27.38200
 21
6.64000
  0
LINE
  8
Gravur
 62
   255
 39
0.400
  6
CONTINUOUS
 10
27.38200
 20
6.64000
 30
 0
 11
27.38200
 21
9.04000
  0
LINE
  8
Gravur
 62
   255
 39
0.400
  6
CONTINUOUS
 10
12.50200
 20
3.43200
 30
 0
 11
12.50700
 21
3.35200
  0
LINE
  8
Gravur
 62
   255
 39
0.400
  6
CONTINUOUS
 10
12.50700
 20
3.35200
 30
 0
 11
12.52100
 21
3.27300
  0
LINE
  8
Gravur
 62
   255
 39
0.400
  6
CONTINUOUS
 10
12.52100
 20
3.27300
 30
 0
 11
12.54400
 21
3.19800
  0
LINE
  8
Gravur
 62
   255
 39
0.400
  6
CONTINUOUS
 10
12.54400
 20
3.19800
 30
 0
 11
12.57700
 21
3.12800
  0
LINE
  8
Gravur
 62
   255
 39
0.400
  6
CONTINUOUS
 10
12.57700
 20
3.12800
 30
 0
 11
12.61700
 21
3.06500
  0
LINE
  8
Gravur
 62
   255
 39
0.400
  6
CONTINUOUS
 10
12.61700
 20
3.06500
 30
 0
 11
12.66400
 21
3.01000
  0
LINE
  8
Gravur
 62
   255
 39
0.400
  6
CONTINUOUS
 10
12.66400
 20
3.01000
 30
 0
 11
12.71800
 21
2.96400
  0
LINE
  8
Gravur
 62
   255
 39
0.400
  6
CONTINUOUS
 10
12.71800
 20
2.96400
 30
 0
 11
12.77600
 21
2.92900
  0
LINE
  8
Gravur
 62
   255
 39
0.400
  6
CONTINUOUS
 10
12.77600
 20
2.92900
 30
 0
 11
12.83800
 21
2.90600
  0
LINE
  8
Gravur
 62
   255
 39
0.400
  6
CONTINUOUS
 10
12.83800
 20
2.90600
 30
 0
 11
12.90200
 21
2.89400
  0
LINE
  8
Gravur
 62
   255
 39
0.400
  6
CONTINUOUS
 10
12.90200
 20
2.89400
 30
 0
 11
12.96600
 21
2.89400
  0
LINE
  8
Gravur
 62
   255
 39
0.400
  6
CONTINUOUS
 10
12.96600
 20
2.89400
 30
 0
 11
13.03000
 21
2.90600
  0
LINE
  8
Gravur
 62
   255
 39
0.400
  6
CONTINUOUS
 10
13.03000
 20
2.90600
 30
 0
 11
13.09200
 21
2.92900
  0
LINE
  8
Gravur
 62
   255
 39
0.400
  6
CONTINUOUS
 10
13.09200
 20
2.92900
 30
 0
 11
13.15000
 21
2.96400
  0
LINE
  8
Gravur
 62
   255
 39
0.400
  6
CONTINUOUS
 10
13.15000
 20
2.96400
 30
 0
 11
13.20400
 21
3.01000
  0
LINE
  8
Gravur
 62
   255
 39
0.400
  6
CONTINUOUS
 10
13.20400
 20
3.01000
 30
 0
 11
13.25100
 21
3.06500
  0
LINE
  8
Gravur
 62
   255
 39
0.400
  6
CONTINUOUS
 10
13.25100
 20
3.06500
 30
 0
 11
13.29100
 21
3.12800
  0
LINE
  8
Gravur
 62
   255
 39
0.400
  6
CONTINUOUS
 10
13.29100
 20
3.12800
 30
 0
 11
13.32400
 21
3.19800
  0
LINE
  8
Gravur
 62
   255
 39
0.400
  6
CONTINUOUS
 10
13.32400
 20
3.19800
 30
 0
 11
13.34700
 21
3.27300
  0
LINE
  8
Gravur
 62
   255
 39
0.400
  6
CONTINUOUS
 10
13.34700
 20
3.27300
 30
 0
 11
13.36100
 21
3.35200
  0
LINE
  8
Gravur
 62
   255
 39
0.400
  6
CONTINUOUS
 10
13.36100
 20
3.35200
 30
 0
 11
13.36600
 21
3.43200
  0
LINE
  8
Gravur
 62
   255
 39
0.400
  6
CONTINUOUS
 10
13.36600
 20
3.43200
 30
 0
 11
13.36600
 21
3.43200
  0
LINE
  8
Gravur
 62
   255
 39
0.400
  6
CONTINUOUS
 10
13.36600
 20
3.43200
 30
 0
 11
13.36600
 21
5.29200
  0
LINE
  8
Gravur
 62
   255
 39
0.400
  6
CONTINUOUS
 10
13.91000
 20
5.29200
 30
 0
 11
13.91000
 21
3.43200
  0
LINE
  8
Gravur
 62
   255
 39
0.400
  6
CONTINUOUS
 10
13.91000
 20
3.43200
 30
 0
 11
13.91500
 21
3.35200
  0
LINE
  8
Gravur
 62
   255
 39
0.400
  6
CONTINUOUS
 10
13.91500
 20
3.35200
 30
 0
 11
13.92900
 21
3.27300
  0
LINE
  8
Gravur
 62
   255
 39
0.400
  6
CONTINUOUS
 10
13.92900
 20
3.27300
 30
 0
 11
13.95200
 21
3.19800
  0
LINE
  8
Gravur
 62
   255
 39
0.400
  6
CONTINUOUS
 10
13.95200
 20
3.19800
 30
 0
 11
13.98500
 21
3.12800
  0
LINE
  8
Gravur
 62
   255
 39
0.400
  6
CONTINUOUS
 10
13.98500
 20
3.12800
 30
 0
 11
14.02500
 21
3.06500
  0
LINE
  8
Gravur
 62
   255
 39
0.400
  6
CONTINUOUS
 10
14.02500
 20
3.06500
 30
 0
 11
14.07200
 21
3.01000
  0
LINE
  8
Gravur
 62
   255
 39
0.400
  6
CONTINUOUS
 10
14.07200
 20
3.01000
 30
 0
 11
14.12600
 21
2.96400
  0
LINE
  8
Gravur
 62
   255
 39
0.400
  6
CONTINUOUS
 10
14.12600
 20
2.96400
 30
 0
 11
14.18400
 21
2.92900
  0
LINE
  8
Gravur
 62
   255
 39
0.400
  6
CONTINUOUS
 10
14.18400
 20
2.92900
 30
 0
 11
14.24600
 21
2.90600
  0
LINE
  8
Gravur
 62
   255
 39
0.400
  6
CONTINUOUS
 10
14.24600
 20
2.90600
 30
 0
 11
14.31000
 21
2.89400
  0
LINE
  8
Gravur
 62
   255
 39
0.400
  6
CONTINUOUS
 10
14.31000
 20
2.89400
 30
 0
 11
14.37400
 21
2.89400
  0
LINE
  8
Gravur
 62
   255
 39
0.400
  6
CONTINUOUS
 10
14.37400
 20
2.89400
 30
 0
 11
14.43800
 21
2.90600
  0
LINE
  8
Gravur
 62
   255
 39
0.400
  6
CONTINUOUS
 10
14.43800
 20
2.90600
 30
 0
 11
14.50000
 21
2.92900
  0
LINE
  8
Gravur
 62
   255
 39
0.400
  6
CONTINUOUS
 10
14.50000
 20
2.92900
 30
 0
 11
14.55800
 21
2.96400
  0
LINE
  8
Gravur
 62
   255
 39
0.400
  6
CONTINUOUS
 10
14.55800
 20
2.96400
 30
 0
 11
14.61200
 21
3.01000
  0
LINE
  8
Gravur
 62
   255
 39
0.400
  6
CONTINUOUS
 10
14.61200
 20
3.01000
 30
 0
 11
14.65900
 21
3.06500
  0
LINE
  8
Gravur
 62
   255
 39
0.400
  6
CONTINUOUS
 10
14.65900
 20
3.06500
 30
 0
 11
14.69900
 21
3.12800
  0
LINE
  8
Gravur
 62
   255
 39
0.400
  6
CONTINUOUS
 10
14.69900
 20
3.12800
 30
 0
 11
14.73200
 21
3.19800
  0
LINE
  8
Gravur
 62
   255
 39
0.400
  6
CONTINUOUS
 10
14.73200
 20
3.19800
 30
 0
 11
14.75500
 21
3.27300
  0
LINE
  8
Gravur
 62
   255
 39
0.400
  6
CONTINUOUS
 10
14.75500
 20
3.27300
 30
 0
 11
14.76900
 21
3.35200
  0
LINE
  8
Gravur
 62
   255
 39
0.400
  6
CONTINUOUS
 10
14.76900
 20
3.35200
 30
 0
 11
14.77400
 21
3.43200
  0
LINE
  8
Gravur
 62
   255
 39
0.400
  6
CONTINUOUS
 10
14.77400
 20
3.43200
 30
 0
 11
14.77400
 21
3.43200
  0
LINE
  8
Gravur
 62
   255
 39
0.400
  6
CONTINUOUS
 10
14.77400
 20
3.43200
 30
 0
 11
14.77400
 21
5.29200
  0
LINE
  8
Gravur
 62
   255
 39
0.400
  6
CONTINUOUS
 10
15.31800
 20
2.89200
 30
 0
 11
15.31800
 21
5.29200
  0
LINE
  8
Gravur
 62
   255
 39
0.400
  6
CONTINUOUS
 10
15.31800
 20
5.29200
 30
 0
 11
16.18200
 21
2.89200
  0
LINE
  8
Gravur
 62
   255
 39
0.400
  6
CONTINUOUS
 10
16.18200
 20
2.89200
 30
 0
 11
16.18200
 21
5.29200
  0
LINE
  8
Gravur
 62
   255
 39
0.400
  6
CONTINUOUS
 10
16.72600
 20
3.43200
 30
 0
 11
16.73100
 21
3.35200
  0
LINE
  8
Gravur
 62
   255
 39
0.400
  6
CONTINUOUS
 10
16.73100
 20
3.35200
 30
 0
 11
16.74500
 21
3.27300
  0
LINE
  8
Gravur
 62
   255
 39
0.400
  6
CONTINUOUS
 10
16.74500
 20
3.27300
 30
 0
 11
16.76800
 21
3.19800
  0
LINE
  8
Gravur
 62
   255
 39
0.400
  6
CONTINUOUS
 10
16.76800
 20
3.19800
 30
 0
 11
16.80100
 21
3.12800
  0
LINE
  8
Gravur
 62
   255
 39
0.400
  6
CONTINUOUS
 10
16.80100
 20
3.12800
 30
 0
 11
16.84100
 21
3.06500
  0
LINE
  8
Gravur
 62
   255
 39
0.400
  6
CONTINUOUS
 10
16.84100
 20
3.06500
 30
 0
 11
16.88800
 21
3.01000
  0
LINE
  8
Gravur
 62
   255
 39
0.400
  6
CONTINUOUS
 10
16.88800
 20
3.01000
 30
 0
 11
16.94200
 21
2.96400
  0
LINE
  8
Gravur
 62
   255
 39
0.400
  6
CONTINUOUS
 10
16.94200
 20
2.96400
 30
 0
 11
17.00000
 21
2.92900
  0
LINE
  8
Gravur
 62
   255
 39
0.400
  6
CONTINUOUS
 10
17.00000
 20
2.92900
 30
 0
 11
17.06200
 21
2.90600
  0
LINE
  8
Gravur
 62
   255
 39
0.400
  6
CONTINUOUS
 10
17.06200
 20
2.90600
 30
 0
 11
17.12600
 21
2.89400
  0
LINE
  8
Gravur
 62
   255
 39
0.400
  6
CONTINUOUS
 10
17.12600
 20
2.89400
 30
 0
 11
17.19000
 21
2.89400
  0
LINE
  8
Gravur
 62
   255
 39
0.400
  6
CONTINUOUS
 10
17.19000
 20
2.89400
 30
 0
 11
17.25400
 21
2.90600
  0
LINE
  8
Gravur
 62
   255
 39
0.400
  6
CONTINUOUS
 10
17.25400
 20
2.90600
 30
 0
 11
17.31600
 21
2.92900
  0
LINE
  8
Gravur
 62
   255
 39
0.400
  6
CONTINUOUS
 10
17.31600
 20
2.92900
 30
 0
 11
17.37400
 21
2.96400
  0
LINE
  8
Gravur
 62
   255
 39
0.400
  6
CONTINUOUS
 10
17.37400
 20
2.96400
 30
 0
 11
17.42800
 21
3.01000
  0
LINE
  8
Gravur
 62
   255
 39
0.400
  6
CONTINUOUS
 10
17.42800
 20
3.01000
 30
 0
 11
17.47500
 21
3.06500
  0
LINE
  8
Gravur
 62
   255
 39
0.400
  6
CONTINUOUS
 10
17.47500
 20
3.06500
 30
 0
 11
17.51500
 21
3.12800
  0
LINE
  8
Gravur
 62
   255
 39
0.400
  6
CONTINUOUS
 10
17.51500
 20
3.12800
 30
 0
 11
17.54800
 21
3.19800
  0
LINE
  8
Gravur
 62
   255
 39
0.400
  6
CONTINUOUS
 10
17.54800
 20
3.19800
 30
 0
 11
17.57100
 21
3.27300
  0
LINE
  8
Gravur
 62
   255
 39
0.400
  6
CONTINUOUS
 10
17.57100
 20
3.27300
 30
 0
 11
17.58500
 21
3.35200
  0
LINE
  8
Gravur
 62
   255
 39
0.400
  6
CONTINUOUS
 10
17.58500
 20
3.35200
 30
 0
 11
17.59000
 21
3.43200
  0
LINE
  8
Gravur
 62
   255
 39
0.400
  6
CONTINUOUS
 10
17.59000
 20
3.43200
 30
 0
 11
17.59000
 21
3.43200
  0
LINE
  8
Gravur
 62
   255
 39
0.400
  6
CONTINUOUS
 10
17.59000
 20
3.43200
 30
 0
 11
17.59000
 21
4.75200
  0
LINE
  8
Gravur
 62
   255
 39
0.400
  6
CONTINUOUS
 10
17.59000
 20
4.75200
 30
 0
 11
17.58500
 21
4.83200
  0
LINE
  8
Gravur
 62
   255
 39
0.400
  6
CONTINUOUS
 10
17.58500
 20
4.83200
 30
 0
 11
17.57100
 21
4.91100
  0
LINE
  8
Gravur
 62
   255
 39
0.400
  6
CONTINUOUS
 10
17.57100
 20
4.91100
 30
 0
 11
17.54800
 21
4.98600
  0
LINE
  8
Gravur
 62
   255
 39
0.400
  6
CONTINUOUS
 10
17.54800
 20
4.98600
 30
 0
 11
17.51500
 21
5.05600
  0
LINE
  8
Gravur
 62
   255
 39
0.400
  6
CONTINUOUS
 10
17.51500
 20
5.05600
 30
 0
 11
17.47500
 21
5.11900
  0
LINE
  8
Gravur
 62
   255
 39
0.400
  6
CONTINUOUS
 10
17.47500
 20
5.11900
 30
 0
 11
17.42800
 21
5.17400
  0
LINE
  8
Gravur
 62
   255
 39
0.400
  6
CONTINUOUS
 10
17.42800
 20
5.17400
 30
 0
 11
17.37400
 21
5.22000
  0
LINE
  8
Gravur
 62
   255
 39
0.400
  6
CONTINUOUS
 10
17.37400
 20
5.22000
 30
 0
 11
17.31600
 21
5.25500
  0
LINE
  8
Gravur
 62
   255
 39
0.400
  6
CONTINUOUS
 10
17.31600
 20
5.25500
 30
 0
 11
17.25400
 21
5.27800
  0
LINE
  8
Gravur
 62
   255
 39
0.400
  6
CONTINUOUS
 10
17.25400
 20
5.27800
 30
 0
 11
17.19000
 21
5.29000
  0
LINE
  8
Gravur
 62
   255
 39
0.400
  6
CONTINUOUS
 10
17.19000
 20
5.29000
 30
 0
 11
17.12600
 21
5.29000
  0
LINE
  8
Gravur
 62
   255
 39
0.400
  6
CONTINUOUS
 10
17.12600
 20
5.29000
 30
 0
 11
17.06200
 21
5.27800
  0
LINE
  8
Gravur
 62
   255
 39
0.400
  6
CONTINUOUS
 10
17.06200
 20
5.27800
 30
 0
 11
17.00000
 21
5.25500
  0
LINE
  8
Gravur
 62
   255
 39
0.400
  6
CONTINUOUS
 10
17.00000
 20
5.25500
 30
 0
 11
16.94200
 21
5.22000
  0
LINE
  8
Gravur
 62
   255
 39
0.400
  6
CONTINUOUS
 10
16.94200
 20
5.22000
 30
 0
 11
16.88800
 21
5.17400
  0
LINE
  8
Gravur
 62
   255
 39
0.400
  6
CONTINUOUS
 10
16.88800
 20
5.17400
 30
 0
 11
16.84100
 21
5.11900
  0
LINE
  8
Gravur
 62
   255
 39
0.400
  6
CONTINUOUS
 10
16.84100
 20
5.11900
 30
 0
 11
16.80100
 21
5.05600
  0
LINE
  8
Gravur
 62
   255
 39
0.400
  6
CONTINUOUS
 10
16.80100
 20
5.05600
 30
 0
 11
16.76800
 21
4.98600
  0
LINE
  8
Gravur
 62
   255
 39
0.400
  6
CONTINUOUS
 10
16.76800
 20
4.98600
 30
 0
 11
16.74500
 21
4.91100
  0
LINE
  8
Gravur
 62
   255
 39
0.400
  6
CONTINUOUS
 10
16.74500
 20
4.91100
 30
 0
 11
16.73100
 21
4.83200
  0
LINE
  8
Gravur
 62
   255
 39
0.400
  6
CONTINUOUS
 10
16.73100
 20
4.83200
 30
 0
 11
16.72600
 21
4.75200
  0
LINE
  8
Gravur
 62
   255
 39
0.400
  6
CONTINUOUS
 10
16.72600
 20
4.75200
 30
 0
 11
16.72600
 21
4.75200
  0
LINE
  8
Gravur
 62
   255
 39
0.400
  6
CONTINUOUS
 10
16.72600
 20
4.75200
 30
 0
 11
16.72600
 21
3.43200
  0
LINE
  8
Gravur
 62
   255
 39
0.400
  6
CONTINUOUS
 10
20.47000
 20
4.75200
 30
 0
 11
20.46700
 21
4.83100
  0
LINE
  8
Gravur
 62
   255
 39
0.400
  6
CONTINUOUS
 10
20.46700
 20
4.83100
 30
 0
 11
20.45400
 21
4.90900
  0
LINE
  8
Gravur
 62
   255
 39
0.400
  6
CONTINUOUS
 10
20.45400
 20
4.90900
 30
 0
 11
20.43200
 21
4.98400
  0
LINE
  8
Gravur
 62
   255
 39
0.400
  6
CONTINUOUS
 10
20.43200
 20
4.98400
 30
 0
 11
20.40100
 21
5.05300
  0
LINE
  8
Gravur
 62
   255
 39
0.400
  6
CONTINUOUS
 10
20.40100
 20
5.05300
 30
 0
 11
20.36300
 21
5.11600
  0
LINE
  8
Gravur
 62
   255
 39
0.400
  6
CONTINUOUS
 10
20.36300
 20
5.11600
 30
 0
 11
20.31700
 21
5.17200
  0
LINE
  8
Gravur
 62
   255
 39
0.400
  6
CONTINUOUS
 10
20.31700
 20
5.17200
 30
 0
 11
20.26500
 21
5.21800
  0
LINE
  8
Gravur
 62
   255
 39
0.400
  6
CONTINUOUS
 10
20.26500
 20
5.21800
 30
 0
 11
20.20900
 21
5.25300
  0
LINE
  8
Gravur
 62
   255
 39
0.400
  6
CONTINUOUS
 10
20.20900
 20
5.25300
 30
 0
 11
20.14800
 21
5.27800
  0
LINE
  8
Gravur
 62
   255
 39
0.400
  6
CONTINUOUS
 10
20.14800
 20
5.27800
 30
 0
 11
20.08600
 21
5.29200
  0
LINE
  8
Gravur
 62
   255
 39
0.400
  6
CONTINUOUS
 10
20.08600
 20
5.29200
 30
 0
 11
20.08600
 21
5.29200
  0
LINE
  8
Gravur
 62
   255
 39
0.400
  6
CONTINUOUS
 10
20.08600
 20
5.29200
 30
 0
 11
20.02700
 21
5.29300
  0
LINE
  8
Gravur
 62
   255
 39
0.400
  6
CONTINUOUS
 10
20.02700
 20
5.29300
 30
 0
 11
19.96900
 21
5.28400
  0
LINE
  8
Gravur
 62
   255
 39
0.400
  6
CONTINUOUS
 10
19.96900
 20
5.28400
 30
 0
 11
19.91200
 21
5.26300
  0
LINE
  8
Gravur
 62
   255
 39
0.400
  6
CONTINUOUS
 10
19.91200
 20
5.26300
 30
 0
 11
19.85900
 21
5.23300
  0
LINE
  8
Gravur
 62
   255
 39
0.400
  6
CONTINUOUS
 10
19.85900
 20
5.23300
 30
 0
 11
19.80900
 21
5.19200
  0
LINE
  8
Gravur
 62
   255
 39
0.400
  6
CONTINUOUS
 10
19.80900
 20
5.19200
 30
 0
 11
19.76500
 21
5.14400
  0
LINE
  8
Gravur
 62
   255
 39
0.400
  6
CONTINUOUS
 10
19.76500
 20
5.14400
 30
 0
 11
19.72800
 21
5.08700
  0
LINE
  8
Gravur
 62
   255
 39
0.400
  6
CONTINUOUS
 10
19.72800
 20
5.08700
 30
 0
 11
19.69700
 21
5.02400
  0
LINE
  8
Gravur
 62
   255
 39
0.400
  6
CONTINUOUS
 10
19.69700
 20
5.02400
 30
 0
 11
19.67500
 21
4.95600
  0
LINE
  8
Gravur
 62
   255
 39
0.400
  6
CONTINUOUS
 10
19.67500
 20
4.95600
 30
 0
 11
19.66000
 21
4.88500
  0
LINE
  8
Gravur
 62
   255
 39
0.400
  6
CONTINUOUS
 10
19.66000
 20
4.88500
 30
 0
 11
19.65400
 21
4.81200
  0
LINE
  8
Gravur
 62
   255
 39
0.400
  6
CONTINUOUS
 10
19.65400
 20
4.81200
 30
 0
 11
19.65400
 21
4.81200
  0
LINE
  8
Gravur
 62
   255
 39
0.400
  6
CONTINUOUS
 10
19.65400
 20
4.81200
 30
 0
 11
19.65400
 21
3.37200
  0
LINE
  8
Gravur
 62
   255
 39
0.400
  6
CONTINUOUS
 10
19.65400
 20
3.37200
 30
 0
 11
19.66400
 21
3.30000
  0
LINE
  8
Gravur
 62
   255
 39
0.400
  6
CONTINUOUS
 10
19.66400
 20
3.30000
 30
 0
 11
19.68200
 21
3.23000
  0
LINE
  8
Gravur
 62
   255
 39
0.400
  6
CONTINUOUS
 10
19.68200
 20
3.23000
 30
 0
 11
19.70700
 21
3.16400
  0
LINE
  8
Gravur
 62
   255
 39
0.400
  6
CONTINUOUS
 10
19.70700
 20
3.16400
 30
 0
 11
19.74000
 21
3.10200
  0
LINE
  8
Gravur
 62
   255
 39
0.400
  6
CONTINUOUS
 10
19.74000
 20
3.10200
 30
 0
 11
19.77800
 21
3.04700
  0
LINE
  8
Gravur
 62
   255
 39
0.400
  6
CONTINUOUS
 10
19.77800
 20
3.04700
 30
 0
 11
19.82200
 21
2.99900
  0
LINE
  8
Gravur
 62
   255
 39
0.400
  6
CONTINUOUS
 10
19.82200
 20
2.99900
 30
 0
 11
19.87200
 21
2.95800
  0
LINE
  8
Gravur
 62
   255
 39
0.400
  6
CONTINUOUS
 10
19.87200
 20
2.95800
 30
 0
 11
19.92400
 21
2.92700
  0
LINE
  8
Gravur
 62
   255
 39
0.400
  6
CONTINUOUS
 10
19.92400
 20
2.92700
 30
 0
 11
19.98000
 21
2.90500
  0
LINE
  8
Gravur
 62
   255
 39
0.400
  6
CONTINUOUS
 10
19.98000
 20
2.90500
 30
 0
 11
20.03800
 21
2.89200
  0
LINE
  8
Gravur
 62
   255
 39
0.400
  6
CONTINUOUS
 10
20.03800
 20
2.89200
 30
 0
 11
20.03800
 21
2.89200
  0
LINE
  8
Gravur
 62
   255
 39
0.400
  6
CONTINUOUS
 10
20.03800
 20
2.89200
 30
 0
 11
20.10100
 21
2.89600
  0
LINE
  8
Gravur
 62
   255
 39
0.400
  6
CONTINUOUS
 10
20.10100
 20
2.89600
 30
 0
 11
20.16400
 21
2.91200
  0
LINE
  8
Gravur
 62
   255
 39
0.400
  6
CONTINUOUS
 10
20.16400
 20
2.91200
 30
 0
 11
20.22400
 21
2.93900
  0
LINE
  8
Gravur
 62
   255
 39
0.400
  6
CONTINUOUS
 10
20.22400
 20
2.93900
 30
 0
 11
20.27900
 21
2.97800
  0
LINE
  8
Gravur
 62
   255
 39
0.400
  6
CONTINUOUS
 10
20.27900
 20
2.97800
 30
 0
 11
20.32900
 21
3.02600
  0
LINE
  8
Gravur
 62
   255
 39
0.400
  6
CONTINUOUS
 10
20.32900
 20
3.02600
 30
 0
 11
20.37400
 21
3.08300
  0
LINE
  8
Gravur
 62
   255
 39
0.400
  6
CONTINUOUS
 10
20.37400
 20
3.08300
 30
 0
 11
20.41100
 21
3.14800
  0
LINE
  8
Gravur
 62
   255
 39
0.400
  6
CONTINUOUS
 10
20.41100
 20
3.14800
 30
 0
 11
20.43900
 21
3.21800
  0
LINE
  8
Gravur
 62
   255
 39
0.400
  6
CONTINUOUS
 10
20.43900
 20
3.21800
 30
 0
 11
20.45900
 21
3.29400
  0
LINE
  8
Gravur
 62
   255
 39
0.400
  6
CONTINUOUS
 10
20.45900
 20
3.29400
 30
 0
 11
20.47000
 21
3.37200
  0
LINE
  8
Gravur
 62
   255
 39
0.400
  6
CONTINUOUS
 10
20.47000
 20
3.37200
 30
 0
 11
20.47000
 21
3.37200
  0
LINE
  8
Gravur
 62
   255
 39
0.400
  6
CONTINUOUS
 10
20.47000
 20
3.37200
 30
 0
 11
20.47000
 21
3.85200
  0
LINE
  8
Gravur
 62
   255
 39
0.400
  6
CONTINUOUS
 10
20.47000
 20
3.85200
 30
 0
 11
20.45900
 21
3.92800
  0
LINE
  8
Gravur
 62
   255
 39
0.400
  6
CONTINUOUS
 10
20.45900
 20
3.92800
 30
 0
 11
20.43900
 21
4.00100
  0
LINE
  8
Gravur
 62
   255
 39
0.400
  6
CONTINUOUS
 10
20.43900
 20
4.00100
 30
 0
 11
20.41100
 21
4.06900
  0
LINE
  8
Gravur
 62
   255
 39
0.400
  6
CONTINUOUS
 10
20.41100
 20
4.06900
 30
 0
 11
20.37600
 21
4.13200
  0
LINE
  8
Gravur
 62
   255
 39
0.400
  6
CONTINUOUS
 10
20.37600
 20
4.13200
 30
 0
 11
20.33300
 21
4.18800
  0
LINE
  8
Gravur
 62
   255
 39
0.400
  6
CONTINUOUS
 10
20.33300
 20
4.18800
 30
 0
 11
20.28500
 21
4.23600
  0
LINE
  8
Gravur
 62
   255
 39
0.400
  6
CONTINUOUS
 10
20.28500
 20
4.23600
 30
 0
 11
20.23200
 21
4.27500
  0
LINE
  8
Gravur
 62
   255
 39
0.400
  6
CONTINUOUS
 10
20.23200
 20
4.27500
 30
 0
 11
20.17600
 21
4.30400
  0
LINE
  8
Gravur
 62
   255
 39
0.400
  6
CONTINUOUS
 10
20.17600
 20
4.30400
 30
 0
 11
20.11600
 21
4.32300
  0
LINE
  8
Gravur
 62
   255
 39
0.400
  6
CONTINUOUS
 10
20.11600
 20
4.32300
 30
 0
 11
20.05400
 21
4.33100
  0
LINE
  8
Gravur
 62
   255
 39
0.400
  6
CONTINUOUS
 10
20.05400
 20
4.33100
 30
 0
 11
19.99300
 21
4.32800
  0
LINE
  8
Gravur
 62
   255
 39
0.400
  6
CONTINUOUS
 10
19.99300
 20
4.32800
 30
 0
 11
19.93200
 21
4.31400
  0
LINE
  8
Gravur
 62
   255
 39
0.400
  6
CONTINUOUS
 10
19.93200
 20
4.31400
 30
 0
 11
19.87400
 21
4.29000
  0
LINE
  8
Gravur
 62
   255
 39
0.400
  6
CONTINUOUS
 10
19.87400
 20
4.29000
 30
 0
 11
19.81900
 21
4.25500
  0
LINE
  8
Gravur
 62
   255
 39
0.400
  6
CONTINUOUS
 10
19.81900
 20
4.25500
 30
 0
 11
19.76800
 21
4.21100
  0
LINE
  8
Gravur
 62
   255
 39
0.400
  6
CONTINUOUS
 10
19.76800
 20
4.21100
 30
 0
 11
19.72400
 21
4.15900
  0
LINE
  8
Gravur
 62
   255
 39
0.400
  6
CONTINUOUS
 10
19.72400
 20
4.15900
 30
 0
 11
19.68500
 21
4.09900
  0
LINE
  8
Gravur
 62
   255
 39
0.400
  6
CONTINUOUS
 10
19.68500
 20
4.09900
 30
 0
 11
19.65300
 21
4.03200
  0
LINE
  8
Gravur
 62
   255
 39
0.400
  6
CONTINUOUS
 10
19.65300
 20
4.03200
 30
 0
 11
19.65400
 21
4.03200
  0
LINE
  8
Gravur
 62
   255
 39
0.400
  6
CONTINUOUS
 10
21.01400
 20
3.43200
 30
 0
 11
21.01900
 21
3.35200
  0
LINE
  8
Gravur
 62
   255
 39
0.400
  6
CONTINUOUS
 10
21.01900
 20
3.35200
 30
 0
 11
21.03300
 21
3.27300
  0
LINE
  8
Gravur
 62
   255
 39
0.400
  6
CONTINUOUS
 10
21.03300
 20
3.27300
 30
 0
 11
21.05600
 21
3.19800
  0
LINE
  8
Gravur
 62
   255
 39
0.400
  6
CONTINUOUS
 10
21.05600
 20
3.19800
 30
 0
 11
21.08900
 21
3.12800
  0
LINE
  8
Gravur
 62
   255
 39
0.400
  6
CONTINUOUS
 10
21.08900
 20
3.12800
 30
 0
 11
21.12900
 21
3.06500
  0
LINE
  8
Gravur
 62
   255
 39
0.400
  6
CONTINUOUS
 10
21.12900
 20
3.06500
 30
 0
 11
21.17600
 21
3.01000
  0
LINE
  8
Gravur
 62
   255
 39
0.400
  6
CONTINUOUS
 10
21.17600
 20
3.01000
 30
 0
 11
21.23000
 21
2.96400
  0
LINE
  8
Gravur
 62
   255
 39
0.400
  6
CONTINUOUS
 10
21.23000
 20
2.96400
 30
 0
 11
21.28800
 21
2.92900
  0
LINE
  8
Gravur
 62
   255
 39
0.400
  6
CONTINUOUS
 10
21.28800
 20
2.92900
 30
 0
 11
21.35000
 21
2.90600
  0
LINE
  8
Gravur
 62
   255
 39
0.400
  6
CONTINUOUS
 10
21.35000
 20
2.90600
 30
 0
 11
21.41400
 21
2.89400
  0
LINE
  8
Gravur
 62
   255
 39
0.400
  6
CONTINUOUS
 10
21.41400
 20
2.89400
 30
 0
 11
21.47800
 21
2.89400
  0
LINE
  8
Gravur
 62
   255
 39
0.400
  6
CONTINUOUS
 10
21.47800
 20
2.89400
 30
 0
 11
21.54200
 21
2.90600
  0
LINE
  8
Gravur
 62
   255
 39
0.400
  6
CONTINUOUS
 10
21.54200
 20
2.90600
 30
 0
 11
21.60400
 21
2.92900
  0
LINE
  8
Gravur
 62
   255
 39
0.400
  6
CONTINUOUS
 10
21.60400
 20
2.92900
 30
 0
 11
21.66200
 21
2.96400
  0
LINE
  8
Gravur
 62
   255
 39
0.400
  6
CONTINUOUS
 10
21.66200
 20
2.96400
 30
 0
 11
21.71600
 21
3.01000
  0
LINE
  8
Gravur
 62
   255
 39
0.400
  6
CONTINUOUS
 10
21.71600
 20
3.01000
 30
 0
 11
21.76300
 21
3.06500
  0
LINE
  8
Gravur
 62
   255
 39
0.400
  6
CONTINUOUS
 10
21.76300
 20
3.06500
 30
 0
 11
21.80300
 21
3.12800
  0
LINE
  8
Gravur
 62
   255
 39
0.400
  6
CONTINUOUS
 10
21.80300
 20
3.12800
 30
 0
 11
21.83600
 21
3.19800
  0
LINE
  8
Gravur
 62
   255
 39
0.400
  6
CONTINUOUS
 10
21.83600
 20
3.19800
 30
 0
 11
21.85900
 21
3.27300
  0
LINE
  8
Gravur
 62
   255
 39
0.400
  6
CONTINUOUS
 10
21.85900
 20
3.27300
 30
 0
 11
21.87300
 21
3.35200
  0
LINE
  8
Gravur
 62
   255
 39
0.400
  6
CONTINUOUS
 10
21.87300
 20
3.35200
 30
 0
 11
21.87800
 21
3.43200
  0
LINE
  8
Gravur
 62
   255
 39
0.400
  6
CONTINUOUS
 10
21.87800
 20
3.43200
 30
 0
 11
21.87800
 21
3.43200
  0
LINE
  8
Gravur
 62
   255
 39
0.400
  6
CONTINUOUS
 10
21.87800
 20
3.43200
 30
 0
 11
21.87800
 21
4.75200
  0
LINE
  8
Gravur
 62
   255
 39
0.400
  6
CONTINUOUS
 10
21.87800
 20
4.75200
 30
 0
 11
21.87300
 21
4.83200
  0
LINE
  8
Gravur
 62
   255
 39
0.400
  6
CONTINUOUS
 10
21.87300
 20
4.83200
 30
 0
 11
21.85900
 21
4.91100
  0
LINE
  8
Gravur
 62
   255
 39
0.400
  6
CONTINUOUS
 10
21.85900
 20
4.91100
 30
 0
 11
21.83600
 21
4.98600
  0
LINE
  8
Gravur
 62
   255
 39
0.400
  6
CONTINUOUS
 10
21.83600
 20
4.98600
 30
 0
 11
21.80300
 21
5.05600
  0
LINE
  8
Gravur
 62
   255
 39
0.400
  6
CONTINUOUS
 10
21.80300
 20
5.05600
 30
 0
 11
21.76300
 21
5.11900
  0
LINE
  8
Gravur
 62
   255
 39
0.400
  6
CONTINUOUS
 10
21.76300
 20
5.11900
 30
 0
 11
21.71600
 21
5.17400
  0
LINE
  8
Gravur
 62
   255
 39
0.400
  6
CONTINUOUS
 10
21.71600
 20
5.17400
 30
 0
 11
21.66200
 21
5.22000
  0
LINE
  8
Gravur
 62
   255
 39
0.400
  6
CONTINUOUS
 10
21.66200
 20
5.22000
 30
 0
 11
21.60400
 21
5.25500
  0
LINE
  8
Gravur
 62
   255
 39
0.400
  6
CONTINUOUS
 10
21.60400
 20
5.25500
 30
 0
 11
21.54200
 21
5.27800
  0
LINE
  8
Gravur
 62
   255
 39
0.400
  6
CONTINUOUS
 10
21.54200
 20
5.27800
 30
 0
 11
21.47800
 21
5.29000
  0
LINE
  8
Gravur
 62
   255
 39
0.400
  6
CONTINUOUS
 10
21.47800
 20
5.29000
 30
 0
 11
21.41400
 21
5.29000
  0
LINE
  8
Gravur
 62
   255
 39
0.400
  6
CONTINUOUS
 10
21.41400
 20
5.29000
 30
 0
 11
21.35000
 21
5.27800
  0
LINE
  8
Gravur
 62
   255
 39
0.400
  6
CONTINUOUS
 10
21.35000
 20
5.27800
 30
 0
 11
21.28800
 21
5.25500
  0
LINE
  8
Gravur
 62
   255
 39
0.400
  6
CONTINUOUS
 10
21.28800
 20
5.25500
 30
 0
 11
21.23000
 21
5.22000
  0
LINE
  8
Gravur
 62
   255
 39
0.400
  6
CONTINUOUS
 10
21.23000
 20
5.22000
 30
 0
 11
21.17600
 21
5.17400
  0
LINE
  8
Gravur
 62
   255
 39
0.400
  6
CONTINUOUS
 10
21.17600
 20
5.17400
 30
 0
 11
21.12900
 21
5.11900
  0
LINE
  8
Gravur
 62
   255
 39
0.400
  6
CONTINUOUS
 10
21.12900
 20
5.11900
 30
 0
 11
21.08900
 21
5.05600
  0
LINE
  8
Gravur
 62
   255
 39
0.400
  6
CONTINUOUS
 10
21.08900
 20
5.05600
 30
 0
 11
21.05600
 21
4.98600
  0
LINE
  8
Gravur
 62
   255
 39
0.400
  6
CONTINUOUS
 10
21.05600
 20
4.98600
 30
 0
 11
21.03300
 21
4.91100
  0
LINE
  8
Gravur
 62
   255
 39
0.400
  6
CONTINUOUS
 10
21.03300
 20
4.91100
 30
 0
 11
21.01900
 21
4.83200
  0
LINE
  8
Gravur
 62
   255
 39
0.400
  6
CONTINUOUS
 10
21.01900
 20
4.83200
 30
 0
 11
21.01400
 21
4.75200
  0
LINE
  8
Gravur
 62
   255
 39
0.400
  6
CONTINUOUS
 10
21.01400
 20
4.75200
 30
 0
 11
21.01400
 21
4.75200
  0
LINE
  8
Gravur
 62
   255
 39
0.400
  6
CONTINUOUS
 10
21.01400
 20
4.75200
 30
 0
 11
21.01400
 21
3.43200
  0
LINE
  8
Gravur
 62
   255
 39
0.400
  6
CONTINUOUS
 10
24.79000
 20
4.77200
 30
 0
 11
24.78500
 21
4.85000
  0
LINE
  8
Gravur
 62
   255
 39
0.400
  6
CONTINUOUS
 10
24.78500
 20
4.85000
 30
 0
 11
24.77200
 21
4.92500
  0
LINE
  8
Gravur
 62
   255
 39
0.400
  6
CONTINUOUS
 10
24.77200
 20
4.92500
 30
 0
 11
24.74900
 21
4.99800
  0
LINE
  8
Gravur
 62
   255
 39
0.400
  6
CONTINUOUS
 10
24.74900
 20
4.99800
 30
 0
 11
24.71800
 21
5.06500
  0
LINE
  8
Gravur
 62
   255
 39
0.400
  6
CONTINUOUS
 10
24.71800
 20
5.06500
 30
 0
 11
24.67900
 21
5.12600
  0
LINE
  8
Gravur
 62
   255
 39
0.400
  6
CONTINUOUS
 10
24.67900
 20
5.12600
 30
 0
 11
24.63300
 21
5.17900
  0
LINE
  8
Gravur
 62
   255
 39
0.400
  6
CONTINUOUS
 10
24.63300
 20
5.17900
 30
 0
 11
24.58200
 21
5.22200
  0
LINE
  8
Gravur
 62
   255
 39
0.400
  6
CONTINUOUS
 10
24.58200
 20
5.22200
 30
 0
 11
24.52600
 21
5.25600
  0
LINE
  8
Gravur
 62
   255
 39
0.400
  6
CONTINUOUS
 10
24.52600
 20
5.25600
 30
 0
 11
24.46700
 21
5.27900
  0
LINE
  8
Gravur
 62
   255
 39
0.400
  6
CONTINUOUS
 10
24.46700
 20
5.27900
 30
 0
 11
24.40500
 21
5.29100
  0
LINE
  8
Gravur
 62
   255
 39
0.400
  6
CONTINUOUS
 10
24.40500
 20
5.29100
 30
 0
 11
24.34300
 21
5.29100
  0
LINE
  8
Gravur
 62
   255
 39
0.400
  6
CONTINUOUS
 10
24.34300
 20
5.29100
 30
 0
 11
24.28100
 21
5.27900
  0
LINE
  8
Gravur
 62
   255
 39
0.400
  6
CONTINUOUS
 10
24.28100
 20
5.27900
 30
 0
 11
24.22200
 21
5.25600
  0
LINE
  8
Gravur
 62
   255
 39
0.400
  6
CONTINUOUS
 10
24.22200
 20
5.25600
 30
 0
 11
24.16600
 21
5.22200
  0
LINE
  8
Gravur
 62
   255
 39
0.400
  6
CONTINUOUS
 10
24.16600
 20
5.22200
 30
 0
 11
24.11500
 21
5.17900
  0
LINE
  8
Gravur
 62
   255
 39
0.400
  6
CONTINUOUS
 10
24.11500
 20
5.17900
 30
 0
 11
24.06900
 21
5.12600
  0
LINE
  8
Gravur
 62
   255
 39
0.400
  6
CONTINUOUS
 10
24.06900
 20
5.12600
 30
 0
 11
24.03000
 21
5.06500
  0
LINE
  8
Gravur
 62
   255
 39
0.400
  6
CONTINUOUS
 10
24.03000
 20
5.06500
 30
 0
 11
23.99900
 21
4.99800
  0
LINE
  8
Gravur
 62
   255
 39
0.400
  6
CONTINUOUS
 10
23.99900
 20
4.99800
 30
 0
 11
23.97600
 21
4.92500
  0
LINE
  8
Gravur
 62
   255
 39
0.400
  6
CONTINUOUS
 10
23.97600
 20
4.92500
 30
 0
 11
23.96300
 21
4.85000
  0
LINE
  8
Gravur
 62
   255
 39
0.400
  6
CONTINUOUS
 10
23.96300
 20
4.85000
 30
 0
 11
23.95800
 21
4.77200
  0
LINE
  8
Gravur
 62
   255
 39
0.400
  6
CONTINUOUS
 10
23.95800
 20
4.77200
 30
 0
 11
23.95800
 21
4.77200
  0
LINE
  8
Gravur
 62
   255
 39
0.400
  6
CONTINUOUS
 10
23.95800
 20
4.77200
 30
 0
 11
23.95800
 21
3.41200
  0
LINE
  8
Gravur
 62
   255
 39
0.400
  6
CONTINUOUS
 10
23.95800
 20
3.41200
 30
 0
 11
23.96300
 21
3.33400
  0
LINE
  8
Gravur
 62
   255
 39
0.400
  6
CONTINUOUS
 10
23.96300
 20
3.33400
 30
 0
 11
23.97600
 21
3.25900
  0
LINE
  8
Gravur
 62
   255
 39
0.400
  6
CONTINUOUS
 10
23.97600
 20
3.25900
 30
 0
 11
23.99900
 21
3.18600
  0
LINE
  8
Gravur
 62
   255
 39
0.400
  6
CONTINUOUS
 10
23.99900
 20
3.18600
 30
 0
 11
24.03000
 21
3.11900
  0
LINE
  8
Gravur
 62
   255
 39
0.400
  6
CONTINUOUS
 10
24.03000
 20
3.11900
 30
 0
 11
24.06900
 21
3.05800
  0
LINE
  8
Gravur
 62
   255
 39
0.400
  6
CONTINUOUS
 10
24.06900
 20
3.05800
 30
 0
 11
24.11500
 21
3.00500
  0
LINE
  8
Gravur
 62
   255
 39
0.400
  6
CONTINUOUS
 10
24.11500
 20
3.00500
 30
 0
 11
24.16600
 21
2.96200
  0
LINE
  8
Gravur
 62
   255
 39
0.400
  6
CONTINUOUS
 10
24.16600
 20
2.96200
 30
 0
 11
24.22200
 21
2.92800
  0
LINE
  8
Gravur
 62
   255
 39
0.400
  6
CONTINUOUS
 10
24.22200
 20
2.92800
 30
 0
 11
24.28100
 21
2.90500
  0
LINE
  8
Gravur
 62
   255
 39
0.400
  6
CONTINUOUS
 10
24.28100
 20
2.90500
 30
 0
 11
24.34300
 21
2.89300
  0
LINE
  8
Gravur
 62
   255
 39
0.400
  6
CONTINUOUS
 10
24.34300
 20
2.89300
 30
 0
 11
24.40500
 21
2.89300
  0
LINE
  8
Gravur
 62
   255
 39
0.400
  6
CONTINUOUS
 10
24.40500
 20
2.89300
 30
 0
 11
24.46700
 21
2.90500
  0
LINE
  8
Gravur
 62
   255
 39
0.400
  6
CONTINUOUS
 10
24.46700
 20
2.90500
 30
 0
 11
24.52600
 21
2.92800
  0
LINE
  8
Gravur
 62
   255
 39
0.400
  6
CONTINUOUS
 10
24.52600
 20
2.92800
 30
 0
 11
24.58200
 21
2.96200
  0
LINE
  8
Gravur
 62
   255
 39
0.400
  6
CONTINUOUS
 10
24.58200
 20
2.96200
 30
 0
 11
24.63300
 21
3.00500
  0
LINE
  8
Gravur
 62
   255
 39
0.400
  6
CONTINUOUS
 10
24.63300
 20
3.00500
 30
 0
 11
24.67900
 21
3.05800
  0
LINE
  8
Gravur
 62
   255
 39
0.400
  6
CONTINUOUS
 10
24.67900
 20
3.05800
 30
 0
 11
24.71800
 21
3.11900
  0
LINE
  8
Gravur
 62
   255
 39
0.400
  6
CONTINUOUS
 10
24.71800
 20
3.11900
 30
 0
 11
24.74900
 21
3.18600
  0
LINE
  8
Gravur
 62
   255
 39
0.400
  6
CONTINUOUS
 10
24.74900
 20
3.18600
 30
 0
 11
24.77200
 21
3.25900
  0
LINE
  8
Gravur
 62
   255
 39
0.400
  6
CONTINUOUS
 10
24.77200
 20
3.25900
 30
 0
 11
24.78500
 21
3.33400
  0
LINE
  8
Gravur
 62
   255
 39
0.400
  6
CONTINUOUS
 10
24.78500
 20
3.33400
 30
 0
 11
24.79000
 21
3.41200
  0
LINE
  8
Gravur
 62
   255
 39
0.400
  6
CONTINUOUS
 10
24.79000
 20
3.41200
 30
 0
 11
24.79000
 21
3.41200
  0
LINE
  8
Gravur
 62
   255
 39
0.400
  6
CONTINUOUS
 10
25.33400
 20
5.29200
 30
 0
 11
25.33400
 21
2.89200
  0
LINE
  8
Gravur
 62
   255
 39
0.400
  6
CONTINUOUS
 10
25.33400
 20
4.09200
 30
 0
 11
26.19800
 21
4.09200
  0
LINE
  8
Gravur
 62
   255
 39
0.400
  6
CONTINUOUS
 10
26.19800
 20
2.89200
 30
 0
 11
26.19800
 21
5.29200
  0
LINE
  8
Gravur
 62
   255
 39
0.400
  6
CONTINUOUS
 10
26.74200
 20
3.43200
 30
 0
 11
26.74700
 21
3.35200
  0
LINE
  8
Gravur
 62
   255
 39
0.400
  6
CONTINUOUS
 10
26.74700
 20
3.35200
 30
 0
 11
26.76100
 21
3.27300
  0
LINE
  8
Gravur
 62
   255
 39
0.400
  6
CONTINUOUS
 10
26.76100
 20
3.27300
 30
 0
 11
26.78400
 21
3.19800
  0
LINE
  8
Gravur
 62
   255
 39
0.400
  6
CONTINUOUS
 10
26.78400
 20
3.19800
 30
 0
 11
26.81700
 21
3.12800
  0
LINE
  8
Gravur
 62
   255
 39
0.400
  6
CONTINUOUS
 10
26.81700
 20
3.12800
 30
 0
 11
26.85700
 21
3.06500
  0
LINE
  8
Gravur
 62
   255
 39
0.400
  6
CONTINUOUS
 10
26.85700
 20
3.06500
 30
 0
 11
26.90400
 21
3.01000
  0
LINE
  8
Gravur
 62
   255
 39
0.400
  6
CONTINUOUS
 10
26.90400
 20
3.01000
 30
 0
 11
26.95800
 21
2.96400
  0
LINE
  8
Gravur
 62
   255
 39
0.400
  6
CONTINUOUS
 10
26.95800
 20
2.96400
 30
 0
 11
27.01600
 21
2.92900
  0
LINE
  8
Gravur
 62
   255
 39
0.400
  6
CONTINUOUS
 10
27.01600
 20
2.92900
 30
 0
 11
27.07800
 21
2.90600
  0
LINE
  8
Gravur
 62
   255
 39
0.400
  6
CONTINUOUS
 10
27.07800
 20
2.90600
 30
 0
 11
27.14200
 21
2.89400
  0
LINE
  8
Gravur
 62
   255
 39
0.400
  6
CONTINUOUS
 10
27.14200
 20
2.89400
 30
 0
 11
27.20600
 21
2.89400
  0
LINE
  8
Gravur
 62
   255
 39
0.400
  6
CONTINUOUS
 10
27.20600
 20
2.89400
 30
 0
 11
27.27000
 21
2.90600
  0
LINE
  8
Gravur
 62
   255
 39
0.400
  6
CONTINUOUS
 10
27.27000
 20
2.90600
 30
 0
 11
27.33200
 21
2.92900
  0
LINE
  8
Gravur
 62
   255
 39
0.400
  6
CONTINUOUS
 10
27.33200
 20
2.92900
 30
 0
 11
27.39000
 21
2.96400
  0
LINE
  8
Gravur
 62
   255
 39
0.400
  6
CONTINUOUS
 10
27.39000
 20
2.96400
 30
 0
 11
27.44400
 21
3.01000
  0
LINE
  8
Gravur
 62
   255
 39
0.400
  6
CONTINUOUS
 10
27.44400
 20
3.01000
 30
 0
 11
27.49100
 21
3.06500
  0
LINE
  8
Gravur
 62
   255
 39
0.400
  6
CONTINUOUS
 10
27.49100
 20
3.06500
 30
 0
 11
27.53100
 21
3.12800
  0
LINE
  8
Gravur
 62
   255
 39
0.400
  6
CONTINUOUS
 10
27.53100
 20
3.12800
 30
 0
 11
27.56400
 21
3.19800
  0
LINE
  8
Gravur
 62
   255
 39
0.400
  6
CONTINUOUS
 10
27.56400
 20
3.19800
 30
 0
 11
27.58700
 21
3.27300
  0
LINE
  8
Gravur
 62
   255
 39
0.400
  6
CONTINUOUS
 10
27.58700
 20
3.27300
 30
 0
 11
27.60100
 21
3.35200
  0
LINE
  8
Gravur
 62
   255
 39
0.400
  6
CONTINUOUS
 10
27.60100
 20
3.35200
 30
 0
 11
27.60600
 21
3.43200
  0
LINE
  8
Gravur
 62
   255
 39
0.400
  6
CONTINUOUS
 10
27.60600
 20
3.43200
 30
 0
 11
27.60600
 21
3.43200
  0
LINE
  8
Gravur
 62
   255
 39
0.400
  6
CONTINUOUS
 10
27.60600
 20
3.43200
 30
 0
 11
27.60600
 21
4.75200
  0
LINE
  8
Gravur
 62
   255
 39
0.400
  6
CONTINUOUS
 10
27.60600
 20
4.75200
 30
 0
 11
27.60100
 21
4.83200
  0
LINE
  8
Gravur
 62
   255
 39
0.400
  6
CONTINUOUS
 10
27.60100
 20
4.83200
 30
 0
 11
27.58700
 21
4.91100
  0
LINE
  8
Gravur
 62
   255
 39
0.400
  6
CONTINUOUS
 10
27.58700
 20
4.91100
 30
 0
 11
27.56400
 21
4.98600
  0
LINE
  8
Gravur
 62
   255
 39
0.400
  6
CONTINUOUS
 10
27.56400
 20
4.98600
 30
 0
 11
27.53100
 21
5.05600
  0
LINE
  8
Gravur
 62
   255
 39
0.400
  6
CONTINUOUS
 10
27.53100
 20
5.05600
 30
 0
 11
27.49100
 21
5.11900
  0
LINE
  8
Gravur
 62
   255
 39
0.400
  6
CONTINUOUS
 10
27.49100
 20
5.11900
 30
 0
 11
27.44400
 21
5.17400
  0
LINE
  8
Gravur
 62
   255
 39
0.400
  6
CONTINUOUS
 10
27.44400
 20
5.17400
 30
 0
 11
27.39000
 21
5.22000
  0
LINE
  8
Gravur
 62
   255
 39
0.400
  6
CONTINUOUS
 10
27.39000
 20
5.22000
 30
 0
 11
27.33200
 21
5.25500
  0
LINE
  8
Gravur
 62
   255
 39
0.400
  6
CONTINUOUS
 10
27.33200
 20
5.25500
 30
 0
 11
27.27000
 21
5.27800
  0
LINE
  8
Gravur
 62
   255
 39
0.400
  6
CONTINUOUS
 10
27.27000
 20
5.27800
 30
 0
 11
27.20600
 21
5.29000
  0
LINE
  8
Gravur
 62
   255
 39
0.400
  6
CONTINUOUS
 10
27.20600
 20
5.29000
 30
 0
 11
27.14200
 21
5.29000
  0
LINE
  8
Gravur
 62
   255
 39
0.400
  6
CONTINUOUS
 10
27.14200
 20
5.29000
 30
 0
 11
27.07800
 21
5.27800
  0
LINE
  8
Gravur
 62
   255
 39
0.400
  6
CONTINUOUS
 10
27.07800
 20
5.27800
 30
 0
 11
27.01600
 21
5.25500
  0
LINE
  8
Gravur
 62
   255
 39
0.400
  6
CONTINUOUS
 10
27.01600
 20
5.25500
 30
 0
 11
26.95800
 21
5.22000
  0
LINE
  8
Gravur
 62
   255
 39
0.400
  6
CONTINUOUS
 10
26.95800
 20
5.22000
 30
 0
 11
26.90400
 21
5.17400
  0
LINE
  8
Gravur
 62
   255
 39
0.400
  6
CONTINUOUS
 10
26.90400
 20
5.17400
 30
 0
 11
26.85700
 21
5.11900
  0
LINE
  8
Gravur
 62
   255
 39
0.400
  6
CONTINUOUS
 10
26.85700
 20
5.11900
 30
 0
 11
26.81700
 21
5.05600
  0
LINE
  8
Gravur
 62
   255
 39
0.400
  6
CONTINUOUS
 10
26.81700
 20
5.05600
 30
 0
 11
26.78400
 21
4.98600
  0
LINE
  8
Gravur
 62
   255
 39
0.400
  6
CONTINUOUS
 10
26.78400
 20
4.98600
 30
 0
 11
26.76100
 21
4.91100
  0
LINE
  8
Gravur
 62
   255
 39
0.400
  6
CONTINUOUS
 10
26.76100
 20
4.91100
 30
 0
 11
26.74700
 21
4.83200
  0
LINE
  8
Gravur
 62
   255
 39
0.400
  6
CONTINUOUS
 10
26.74700
 20
4.83200
 30
 0
 11
26.74200
 21
4.75200
  0
LINE
  8
Gravur
 62
   255
 39
0.400
  6
CONTINUOUS
 10
26.74200
 20
4.75200
 30
 0
 11
26.74200
 21
4.75200
  0
LINE
  8
Gravur
 62
   255
 39
0.400
  6
CONTINUOUS
 10
26.74200
 20
4.75200
 30
 0
 11
26.74200
 21
3.43200
  0
LINE
  8
Gravur
 62
   255
 39
0.400
  6
CONTINUOUS
 10
28.13400
 20
2.89200
 30
 0
 11
28.13400
 21
5.29200
  0
LINE
  8
Gravur
 62
   255
 39
0.400
  6
CONTINUOUS
 10
28.13400
 20
5.29200
 30
 0
 11
28.56600
 21
5.29200
  0
LINE
  8
Gravur
 62
   255
 39
0.400
  6
CONTINUOUS
 10
28.56600
 20
5.29200
 30
 0
 11
28.63700
 21
5.28500
  0
LINE
  8
Gravur
 62
   255
 39
0.400
  6
CONTINUOUS
 10
28.63700
 20
5.28500
 30
 0
 11
28.70800
 21
5.26500
  0
LINE
  8
Gravur
 62
   255
 39
0.400
  6
CONTINUOUS
 10
28.70800
 20
5.26500
 30
 0
 11
28.77400
 21
5.23300
  0
LINE
  8
Gravur
 62
   255
 39
0.400
  6
CONTINUOUS
 10
28.77400
 20
5.23300
 30
 0
 11
28.83600
 21
5.18800
  0
LINE
  8
Gravur
 62
   255
 39
0.400
  6
CONTINUOUS
 10
28.83600
 20
5.18800
 30
 0
 11
28.89200
 21
5.13200
  0
LINE
  8
Gravur
 62
   255
 39
0.400
  6
CONTINUOUS
 10
28.89200
 20
5.13200
 30
 0
 11
28.94100
 21
5.06600
  0
LINE
  8
Gravur
 62
   255
 39
0.400
  6
CONTINUOUS
 10
28.94100
 20
5.06600
 30
 0
 11
28.98200
 21
4.99200
  0
LINE
  8
Gravur
 62
   255
 39
0.400
  6
CONTINUOUS
 10
28.98200
 20
4.99200
 30
 0
 11
29.01300
 21
4.91100
  0
LINE
  8
Gravur
 62
   255
 39
0.400
  6
CONTINUOUS
 10
29.01300
 20
4.91100
 30
 0
 11
29.03400
 21
4.82600
  0
LINE
  8
Gravur
 62
   255
 39
0.400
  6
CONTINUOUS
 10
29.03400
 20
4.82600
 30
 0
 11
29.04400
 21
4.73700
  0
LINE
  8
Gravur
 62
   255
 39
0.400
  6
CONTINUOUS
 10
29.04400
 20
4.73700
 30
 0
 11
29.04400
 21
4.64700
  0
LINE
  8
Gravur
 62
   255
 39
0.400
  6
CONTINUOUS
 10
29.04400
 20
4.64700
 30
 0
 11
29.03400
 21
4.55800
  0
LINE
  8
Gravur
 62
   255
 39
0.400
  6
CONTINUOUS
 10
29.03400
 20
4.55800
 30
 0
 11
29.01300
 21
4.47300
  0
LINE
  8
Gravur
 62
   255
 39
0.400
  6
CONTINUOUS
 10
29.01300
 20
4.47300
 30
 0
 11
28.98200
 21
4.39200
  0
LINE
  8
Gravur
 62
   255
 39
0.400
  6
CONTINUOUS
 10
28.98200
 20
4.39200
 30
 0
 11
28.94100
 21
4.31800
  0
LINE
  8
Gravur
 62
   255
 39
0.400
  6
CONTINUOUS
 10
28.94100
 20
4.31800
 30
 0
 11
28.89200
 21
4.25200
  0
LINE
  8
Gravur
 62
   255
 39
0.400
  6
CONTINUOUS
 10
28.89200
 20
4.25200
 30
 0
 11
28.83600
 21
4.19600
  0
LINE
  8
Gravur
 62
   255
 39
0.400
  6
CONTINUOUS
 10
28.83600
 20
4.19600
 30
 0
 11
28.77400
 21
4.15100
  0
LINE
  8
Gravur
 62
   255
 39
0.400
  6
CONTINUOUS
 10
28.77400
 20
4.15100
 30
 0
 11
28.70800
 21
4.11900
  0
LINE
  8
Gravur
 62
   255
 39
0.400
  6
CONTINUOUS
 10
28.70800
 20
4.11900
 30
 0
 11
28.63700
 21
4.09900
  0
LINE
  8
Gravur
 62
   255
 39
0.400
  6
CONTINUOUS
 10
28.63700
 20
4.09900
 30
 0
 11
28.56600
 21
4.09200
  0
LINE
  8
Gravur
 62
   255
 39
0.400
  6
CONTINUOUS
 10
28.56600
 20
4.09200
 30
 0
 11
28.56600
 21
4.09200
  0
LINE
  8
Gravur
 62
   255
 39
0.400
  6
CONTINUOUS
 10
28.56600
 20
4.09200
 30
 0
 11
28.13400
 21
4.09200
  0
LINE
  8
Gravur
 62
   255
 39
0.400
  6
CONTINUOUS
 10
28.13400
 20
4.09200
 30
 0
 11
28.56600
 21
4.09200
  0
LINE
  8
Gravur
 62
   255
 39
0.400
  6
CONTINUOUS
 10
28.56600
 20
4.09200
 30
 0
 11
29.04600
 21
2.89200
  0
LINE
  8
Gravur
 62
   255
 39
0.400
  6
CONTINUOUS
 10
29.59000
 20
5.29200
 30
 0
 11
29.59000
 21
3.43200
  0
LINE
  8
Gravur
 62
   255
 39
0.400
  6
CONTINUOUS
 10
29.59000
 20
3.43200
 30
 0
 11
29.59500
 21
3.35200
  0
LINE
  8
Gravur
 62
   255
 39
0.400
  6
CONTINUOUS
 10
29.59500
 20
3.35200
 30
 0
 11
29.60900
 21
3.27300
  0
LINE
  8
Gravur
 62
   255
 39
0.400
  6
CONTINUOUS
 10
29.60900
 20
3.27300
 30
 0
 11
29.63200
 21
3.19800
  0
LINE
  8
Gravur
 62
   255
 39
0.400
  6
CONTINUOUS
 10
29.63200
 20
3.19800
 30
 0
 11
29.66500
 21
3.12800
  0
LINE
  8
Gravur
 62
   255
 39
0.400
  6
CONTINUOUS
 10
29.66500
 20
3.12800
 30
 0
 11
29.70500
 21
3.06500
  0
LINE
  8
Gravur
 62
   255
 39
0.400
  6
CONTINUOUS
 10
29.70500
 20
3.06500
 30
 0
 11
29.75200
 21
3.01000
  0
LINE
  8
Gravur
 62
   255
 39
0.400
  6
CONTINUOUS
 10
29.75200
 20
3.01000
 30
 0
 11
29.80600
 21
2.96400
  0
LINE
  8
Gravur
 62
   255
 39
0.400
  6
CONTINUOUS
 10
29.80600
 20
2.96400
 30
 0
 11
29.86400
 21
2.92900
  0
LINE
  8
Gravur
 62
   255
 39
0.400
  6
CONTINUOUS
 10
29.86400
 20
2.92900
 30
 0
 11
29.92600
 21
2.90600
  0
LINE
  8
Gravur
 62
   255
 39
0.400
  6
CONTINUOUS
 10
29.92600
 20
2.90600
 30
 0
 11
29.99000
 21
2.89400
  0
LINE
  8
Gravur
 62
   255
 39
0.400
  6
CONTINUOUS
 10
29.99000
 20
2.89400
 30
 0
 11
30.05400
 21
2.89400
  0
LINE
  8
Gravur
 62
   255
 39
0.400
  6
CONTINUOUS
 10
30.05400
 20
2.89400
 30
 0
 11
30.11800
 21
2.90600
  0
LINE
  8
Gravur
 62
   255
 39
0.400
  6
CONTINUOUS
 10
30.11800
 20
2.90600
 30
 0
 11
30.18000
 21
2.92900
  0
LINE
  8
Gravur
 62
   255
 39
0.400
  6
CONTINUOUS
 10
30.18000
 20
2.92900
 30
 0
 11
30.23800
 21
2.96400
  0
LINE
  8
Gravur
 62
   255
 39
0.400
  6
CONTINUOUS
 10
30.23800
 20
2.96400
 30
 0
 11
30.29200
 21
3.01000
  0
LINE
  8
Gravur
 62
   255
 39
0.400
  6
CONTINUOUS
 10
30.29200
 20
3.01000
 30
 0
 11
30.33900
 21
3.06500
  0
LINE
  8
Gravur
 62
   255
 39
0.400
  6
CONTINUOUS
 10
30.33900
 20
3.06500
 30
 0
 11
30.37900
 21
3.12800
  0
LINE
  8
Gravur
 62
   255
 39
0.400
  6
CONTINUOUS
 10
30.37900
 20
3.12800
 30
 0
 11
30.41200
 21
3.19800
  0
LINE
  8
Gravur
 62
   255
 39
0.400
  6
CONTINUOUS
 10
30.41200
 20
3.19800
 30
 0
 11
30.43500
 21
3.27300
  0
LINE
  8
Gravur
 62
   255
 39
0.400
  6
CONTINUOUS
 10
30.43500
 20
3.27300
 30
 0
 11
30.44900
 21
3.35200
  0
LINE
  8
Gravur
 62
   255
 39
0.400
  6
CONTINUOUS
 10
30.44900
 20
3.35200
 30
 0
 11
30.45400
 21
3.43200
  0
LINE
  8
Gravur
 62
   255
 39
0.400
  6
CONTINUOUS
 10
30.45400
 20
3.43200
 30
 0
 11
30.45400
 21
3.43200
  0
LINE
  8
Gravur
 62
   255
 39
0.400
  6
CONTINUOUS
 10
30.45400
 20
3.43200
 30
 0
 11
30.45400
 21
5.29200
  0
LINE
  8
Gravur
 62
   255
 39
0.400
  6
CONTINUOUS
 10
30.99800
 20
3.49200
 30
 0
 11
31.00400
 21
3.40300
  0
LINE
  8
Gravur
 62
   255
 39
0.400
  6
CONTINUOUS
 10
31.00400
 20
3.40300
 30
 0
 11
31.02000
 21
3.31500
  0
LINE
  8
Gravur
 62
   255
 39
0.400
  6
CONTINUOUS
 10
31.02000
 20
3.31500
 30
 0
 11
31.04500
 21
3.23200
  0
LINE
  8
Gravur
 62
   255
 39
0.400
  6
CONTINUOUS
 10
31.04500
 20
3.23200
 30
 0
 11
31.08100
 21
3.15400
  0
LINE
  8
Gravur
 62
   255
 39
0.400
  6
CONTINUOUS
 10
31.08100
 20
3.15400
 30
 0
 11
31.12600
 21
3.08400
  0
LINE
  8
Gravur
 62
   255
 39
0.400
  6
CONTINUOUS
 10
31.12600
 20
3.08400
 30
 0
 11
31.17900
 21
3.02300
  0
LINE
  8
Gravur
 62
   255
 39
0.400
  6
CONTINUOUS
 10
31.17900
 20
3.02300
 30
 0
 11
31.23800
 21
2.97200
  0
LINE
  8
Gravur
 62
   255
 39
0.400
  6
CONTINUOUS
 10
31.23800
 20
2.97200
 30
 0
 11
31.30300
 21
2.93300
  0
LINE
  8
Gravur
 62
   255
 39
0.400
  6
CONTINUOUS
 10
31.30300
 20
2.93300
 30
 0
 11
31.37100
 21
2.90700
  0
LINE
  8
Gravur
 62
   255
 39
0.400
  6
CONTINUOUS
 10
31.37100
 20
2.90700
 30
 0
 11
31.44200
 21
2.89400
  0
LINE
  8
Gravur
 62
   255
 39
0.400
  6
CONTINUOUS
 10
31.44200
 20
2.89400
 30
 0
 11
31.51400
 21
2.89400
  0
LINE
  8
Gravur
 62
   255
 39
0.400
  6
CONTINUOUS
 10
31.51400
 20
2.89400
 30
 0
 11
31.58500
 21
2.90700
  0
LINE
  8
Gravur
 62
   255
 39
0.400
  6
CONTINUOUS
 10
31.58500
 20
2.90700
 30
 0
 11
31.65300
 21
2.93300
  0
LINE
  8
Gravur
 62
   255
 39
0.400
  6
CONTINUOUS
 10
31.65300
 20
2.93300
 30
 0
 11
31.71800
 21
2.97200
  0
LINE
  8
Gravur
 62
   255
 39
0.400
  6
CONTINUOUS
 10
31.71800
 20
2.97200
 30
 0
 11
31.77700
 21
3.02300
  0
LINE
  8
Gravur
 62
   255
 39
0.400
  6
CONTINUOUS
 10
31.77700
 20
3.02300
 30
 0
 11
31.83000
 21
3.08400
  0
LINE
  8
Gravur
 62
   255
 39
0.400
  6
CONTINUOUS
 10
31.83000
 20
3.08400
 30
 0
 11
31.87500
 21
3.15400
  0
LINE
  8
Gravur
 62
   255
 39
0.400
  6
CONTINUOUS
 10
31.87500
 20
3.15400
 30
 0
 11
31.91100
 21
3.23200
  0
LINE
  8
Gravur
 62
   255
 39
0.400
  6
CONTINUOUS
 10
31.91100
 20
3.23200
 30
 0
 11
31.93600
 21
3.31500
  0
LINE
  8
Gravur
 62
   255
 39
0.400
  6
CONTINUOUS
 10
31.93600
 20
3.31500
 30
 0
 11
31.95200
 21
3.40300
  0
LINE
  8
Gravur
 62
   255
 39
0.400
  6
CONTINUOUS
 10
31.95200
 20
3.40300
 30
 0
 11
31.95800
 21
3.49200
  0
LINE
  8
Gravur
 62
   255
 39
0.400
  6
CONTINUOUS
 10
31.95800
 20
3.49200
 30
 0
 11
31.95800
 21
3.49200
  0
LINE
  8
Gravur
 62
   255
 39
0.400
  6
CONTINUOUS
 10
31.95800
 20
3.49200
 30
 0
 11
31.95300
 21
3.57800
  0
LINE
  8
Gravur
 62
   255
 39
0.400
  6
CONTINUOUS
 10
31.95300
 20
3.57800
 30
 0
 11
31.93900
 21
3.66100
  0
LINE
  8
Gravur
 62
   255
 39
0.400
  6
CONTINUOUS
 10
31.93900
 20
3.66100
 30
 0
 11
31.91600
 21
3.74200
  0
LINE
  8
Gravur
 62
   255
 39
0.400
  6
CONTINUOUS
 10
31.91600
 20
3.74200
 30
 0
 11
31.88300
 21
3.81700
  0
LINE
  8
Gravur
 62
   255
 39
0.400
  6
CONTINUOUS
 10
31.88300
 20
3.81700
 30
 0
 11
31.84100
 21
3.88600
  0
LINE
  8
Gravur
 62
   255
 39
0.400
  6
CONTINUOUS
 10
31.84100
 20
3.88600
 30
 0
 11
31.79300
 21
3.94600
  0
LINE
  8
Gravur
 62
   255
 39
0.400
  6
CONTINUOUS
 10
31.79300
 20
3.94600
 30
 0
 11
31.73800
 21
3.99800
  0
LINE
  8
Gravur
 62
   255
 39
0.400
  6
CONTINUOUS
 10
31.73800
 20
3.99800
 30
 0
 11
31.67800
 21
4.03900
  0
LINE
  8
Gravur
 62
   255
 39
0.400
  6
CONTINUOUS
 10
31.67800
 20
4.03900
 30
 0
 11
31.61300
 21
4.06800
  0
LINE
  8
Gravur
 62
   255
 39
0.400
  6
CONTINUOUS
 10
31.61300
 20
4.06800
 30
 0
 11
31.54700
 21
4.08600
  0
LINE
  8
Gravur
 62
   255
 39
0.400
  6
CONTINUOUS
 10
31.54700
 20
4.08600
 30
 0
 11
31.47800
 21
4.09200
  0
LINE
  8
Gravur
 62
   255
 39
0.400
  6
CONTINUOUS
 10
31.47800
 20
4.09200
 30
 0
 11
31.47800
 21
4.09200
  0
LINE
  8
Gravur
 62
   255
 39
0.400
  6
CONTINUOUS
 10
31.47800
 20
4.09200
 30
 0
 11
31.40700
 21
4.09900
  0
LINE
  8
Gravur
 62
   255
 39
0.400
  6
CONTINUOUS
 10
31.40700
 20
4.09900
 30
 0
 11
31.33600
 21
4.11900
  0
LINE
  8
Gravur
 62
   255
 39
0.400
  6
CONTINUOUS
 10
31.33600
 20
4.11900
 30
 0
 11
31.27000
 21
4.15100
  0
LINE
  8
Gravur
 62
   255
 39
0.400
  6
CONTINUOUS
 10
31.27000
 20
4.15100
 30
 0
 11
31.20800
 21
4.19600
  0
LINE
  8
Gravur
 62
   255
 39
0.400
  6
CONTINUOUS
 10
31.20800
 20
4.19600
 30
 0
 11
31.15200
 21
4.25200
  0
LINE
  8
Gravur
 62
   255
 39
0.400
  6
CONTINUOUS
 10
31.15200
 20
4.25200
 30
 0
 11
31.10300
 21
4.31800
  0
LINE
  8
Gravur
 62
   255
 39
0.400
  6
CONTINUOUS
 10
31.10300
 20
4.31800
 30
 0
 11
31.06200
 21
4.39200
  0
LINE
  8
Gravur
 62
   255
 39
0.400
  6
CONTINUOUS
 10
31.06200
 20
4.39200
 30
 0
 11
31.03100
 21
4.47300
  0
LINE
  8
Gravur
 62
   255
 39
0.400
  6
CONTINUOUS
 10
31.03100
 20
4.47300
 30
 0
 11
31.01000
 21
4.55800
  0
LINE
  8
Gravur
 62
   255
 39
0.400
  6
CONTINUOUS
 10
31.01000
 20
4.55800
 30
 0
 11
31.00000
 21
4.64700
  0
LINE
  8
Gravur
 62
   255
 39
0.400
  6
CONTINUOUS
 10
31.00000
 20
4.64700
 30
 0
 11
31.00000
 21
4.73700
  0
LINE
  8
Gravur
 62
   255
 39
0.400
  6
CONTINUOUS
 10
31.00000
 20
4.73700
 30
 0
 11
31.01000
 21
4.82600
  0
LINE
  8
Gravur
 62
   255
 39
0.400
  6
CONTINUOUS
 10
31.01000
 20
4.82600
 30
 0
 11
31.03100
 21
4.91100
  0
LINE
  8
Gravur
 62
   255
 39
0.400
  6
CONTINUOUS
 10
31.03100
 20
4.91100
 30
 0
 11
31.06200
 21
4.99200
  0
LINE
  8
Gravur
 62
   255
 39
0.400
  6
CONTINUOUS
 10
31.06200
 20
4.99200
 30
 0
 11
31.10300
 21
5.06600
  0
LINE
  8
Gravur
 62
   255
 39
0.400
  6
CONTINUOUS
 10
31.10300
 20
5.06600
 30
 0
 11
31.15200
 21
5.13200
  0
LINE
  8
Gravur
 62
   255
 39
0.400
  6
CONTINUOUS
 10
31.15200
 20
5.13200
 30
 0
 11
31.20800
 21
5.18800
  0
LINE
  8
Gravur
 62
   255
 39
0.400
  6
CONTINUOUS
 10
31.20800
 20
5.18800
 30
 0
 11
31.27000
 21
5.23300
  0
LINE
  8
Gravur
 62
   255
 39
0.400
  6
CONTINUOUS
 10
31.27000
 20
5.23300
 30
 0
 11
31.33600
 21
5.26500
  0
LINE
  8
Gravur
 62
   255
 39
0.400
  6
CONTINUOUS
 10
31.33600
 20
5.26500
 30
 0
 11
31.40700
 21
5.28500
  0
LINE
  8
Gravur
 62
   255
 39
0.400
  6
CONTINUOUS
 10
31.40700
 20
5.28500
 30
 0
 11
31.47800
 21
5.29200
  0
LINE
  8
Gravur
 62
   255
 39
0.400
  6
CONTINUOUS
 10
31.47800
 20
5.29200
 30
 0
 11
31.47800
 21
5.29200
  0
LINE
  8
Gravur
 62
   255
 39
0.400
  6
CONTINUOUS
 10
31.47800
 20
5.29200
 30
 0
 11
31.54800
 21
5.28600
  0
LINE
  8
Gravur
 62
   255
 39
0.400
  6
CONTINUOUS
 10
31.54800
 20
5.28600
 30
 0
 11
31.61600
 21
5.26700
  0
LINE
  8
Gravur
 62
   255
 39
0.400
  6
CONTINUOUS
 10
31.61600
 20
5.26700
 30
 0
 11
31.68200
 21
5.23600
  0
LINE
  8
Gravur
 62
   255
 39
0.400
  6
CONTINUOUS
 10
31.68200
 20
5.23600
 30
 0
 11
31.74400
 21
5.19300
  0
LINE
  8
Gravur
 62
   255
 39
0.400
  6
CONTINUOUS
 10
31.74400
 20
5.19300
 30
 0
 11
31.79900
 21
5.14000
  0
LINE
  8
Gravur
 62
   255
 39
0.400
  6
CONTINUOUS
 10
31.79900
 20
5.14000
 30
 0
 11
31.84800
 21
5.07700
  0
LINE
  8
Gravur
 62
   255
 39
0.400
  6
CONTINUOUS
 10
31.84800
 20
5.07700
 30
 0
 11
31.88800
 21
5.00600
  0
LINE
  8
Gravur
 62
   255
 39
0.400
  6
CONTINUOUS
 10
31.88800
 20
5.00600
 30
 0
 11
31.92000
 21
4.92800
  0
LINE
  8
Gravur
 62
   255
 39
0.400
  6
CONTINUOUS
 10
31.92000
 20
4.92800
 30
 0
 11
31.94300
 21
4.84500
  0
LINE
  8
Gravur
 62
   255
 39
0.400
  6
CONTINUOUS
 10
31.94300
 20
4.84500
 30
 0
 11
31.95600
 21
4.75800
  0
LINE
  8
Gravur
 62
   255
 39
0.400
  6
CONTINUOUS
 10
31.95600
 20
4.75800
 30
 0
 11
31.95800
 21
4.69200
  0
LINE
  8
Gravur
 62
   255
 39
0.400
  6
CONTINUOUS
 10
29.22200
 20
32.98000
 30
 0
 11
29.22700
 21
32.90000
  0
LINE
  8
Gravur
 62
   255
 39
0.400
  6
CONTINUOUS
 10
29.22700
 20
32.90000
 30
 0
 11
29.24100
 21
32.82100
  0
LINE
  8
Gravur
 62
   255
 39
0.400
  6
CONTINUOUS
 10
29.24100
 20
32.82100
 30
 0
 11
29.26400
 21
32.74600
  0
LINE
  8
Gravur
 62
   255
 39
0.400
  6
CONTINUOUS
 10
29.26400
 20
32.74600
 30
 0
 11
29.29700
 21
32.67600
  0
LINE
  8
Gravur
 62
   255
 39
0.400
  6
CONTINUOUS
 10
29.29700
 20
32.67600
 30
 0
 11
29.33700
 21
32.61300
  0
LINE
  8
Gravur
 62
   255
 39
0.400
  6
CONTINUOUS
 10
29.33700
 20
32.61300
 30
 0
 11
29.38400
 21
32.55800
  0
LINE
  8
Gravur
 62
   255
 39
0.400
  6
CONTINUOUS
 10
29.38400
 20
32.55800
 30
 0
 11
29.43800
 21
32.51200
  0
LINE
  8
Gravur
 62
   255
 39
0.400
  6
CONTINUOUS
 10
29.43800
 20
32.51200
 30
 0
 11
29.49600
 21
32.47700
  0
LINE
  8
Gravur
 62
   255
 39
0.400
  6
CONTINUOUS
 10
29.49600
 20
32.47700
 30
 0
 11
29.55800
 21
32.45400
  0
LINE
  8
Gravur
 62
   255
 39
0.400
  6
CONTINUOUS
 10
29.55800
 20
32.45400
 30
 0
 11
29.62200
 21
32.44200
  0
LINE
  8
Gravur
 62
   255
 39
0.400
  6
CONTINUOUS
 10
29.62200
 20
32.44200
 30
 0
 11
29.68600
 21
32.44200
  0
LINE
  8
Gravur
 62
   255
 39
0.400
  6
CONTINUOUS
 10
29.68600
 20
32.44200
 30
 0
 11
29.75000
 21
32.45400
  0
LINE
  8
Gravur
 62
   255
 39
0.400
  6
CONTINUOUS
 10
29.75000
 20
32.45400
 30
 0
 11
29.81200
 21
32.47700
  0
LINE
  8
Gravur
 62
   255
 39
0.400
  6
CONTINUOUS
 10
29.81200
 20
32.47700
 30
 0
 11
29.87000
 21
32.51200
  0
LINE
  8
Gravur
 62
   255
 39
0.400
  6
CONTINUOUS
 10
29.87000
 20
32.51200
 30
 0
 11
29.92400
 21
32.55800
  0
LINE
  8
Gravur
 62
   255
 39
0.400
  6
CONTINUOUS
 10
29.92400
 20
32.55800
 30
 0
 11
29.97100
 21
32.61300
  0
LINE
  8
Gravur
 62
   255
 39
0.400
  6
CONTINUOUS
 10
29.97100
 20
32.61300
 30
 0
 11
30.01100
 21
32.67600
  0
LINE
  8
Gravur
 62
   255
 39
0.400
  6
CONTINUOUS
 10
30.01100
 20
32.67600
 30
 0
 11
30.04400
 21
32.74600
  0
LINE
  8
Gravur
 62
   255
 39
0.400
  6
CONTINUOUS
 10
30.04400
 20
32.74600
 30
 0
 11
30.06700
 21
32.82100
  0
LINE
  8
Gravur
 62
   255
 39
0.400
  6
CONTINUOUS
 10
30.06700
 20
32.82100
 30
 0
 11
30.08100
 21
32.90000
  0
LINE
  8
Gravur
 62
   255
 39
0.400
  6
CONTINUOUS
 10
30.08100
 20
32.90000
 30
 0
 11
30.08600
 21
32.98000
  0
LINE
  8
Gravur
 62
   255
 39
0.400
  6
CONTINUOUS
 10
30.08600
 20
32.98000
 30
 0
 11
30.08600
 21
32.98000
  0
LINE
  8
Gravur
 62
   255
 39
0.400
  6
CONTINUOUS
 10
30.08600
 20
32.98000
 30
 0
 11
30.08600
 21
34.30000
  0
LINE
  8
Gravur
 62
   255
 39
0.400
  6
CONTINUOUS
 10
30.08600
 20
34.30000
 30
 0
 11
30.08100
 21
34.38000
  0
LINE
  8
Gravur
 62
   255
 39
0.400
  6
CONTINUOUS
 10
30.08100
 20
34.38000
 30
 0
 11
30.06700
 21
34.45900
  0
LINE
  8
Gravur
 62
   255
 39
0.400
  6
CONTINUOUS
 10
30.06700
 20
34.45900
 30
 0
 11
30.04400
 21
34.53400
  0
LINE
  8
Gravur
 62
   255
 39
0.400
  6
CONTINUOUS
 10
30.04400
 20
34.53400
 30
 0
 11
30.01100
 21
34.60400
  0
LINE
  8
Gravur
 62
   255
 39
0.400
  6
CONTINUOUS
 10
30.01100
 20
34.60400
 30
 0
 11
29.97100
 21
34.66700
  0
LINE
  8
Gravur
 62
   255
 39
0.400
  6
CONTINUOUS
 10
29.97100
 20
34.66700
 30
 0
 11
29.92400
 21
34.72200
  0
LINE
  8
Gravur
 62
   255
 39
0.400
  6
CONTINUOUS
 10
29.92400
 20
34.72200
 30
 0
 11
29.87000
 21
34.76800
  0
LINE
  8
Gravur
 62
   255
 39
0.400
  6
CONTINUOUS
 10
29.87000
 20
34.76800
 30
 0
 11
29.81200
 21
34.80300
  0
LINE
  8
Gravur
 62
   255
 39
0.400
  6
CONTINUOUS
 10
29.81200
 20
34.80300
 30
 0
 11
29.75000
 21
34.82600
  0
LINE
  8
Gravur
 62
   255
 39
0.400
  6
CONTINUOUS
 10
29.75000
 20
34.82600
 30
 0
 11
29.68600
 21
34.83800
  0
LINE
  8
Gravur
 62
   255
 39
0.400
  6
CONTINUOUS
 10
29.68600
 20
34.83800
 30
 0
 11
29.62200
 21
34.83800
  0
LINE
  8
Gravur
 62
   255
 39
0.400
  6
CONTINUOUS
 10
29.62200
 20
34.83800
 30
 0
 11
29.55800
 21
34.82600
  0
LINE
  8
Gravur
 62
   255
 39
0.400
  6
CONTINUOUS
 10
29.55800
 20
34.82600
 30
 0
 11
29.49600
 21
34.80300
  0
LINE
  8
Gravur
 62
   255
 39
0.400
  6
CONTINUOUS
 10
29.49600
 20
34.80300
 30
 0
 11
29.43800
 21
34.76800
  0
LINE
  8
Gravur
 62
   255
 39
0.400
  6
CONTINUOUS
 10
29.43800
 20
34.76800
 30
 0
 11
29.38400
 21
34.72200
  0
LINE
  8
Gravur
 62
   255
 39
0.400
  6
CONTINUOUS
 10
29.38400
 20
34.72200
 30
 0
 11
29.33700
 21
34.66700
  0
LINE
  8
Gravur
 62
   255
 39
0.400
  6
CONTINUOUS
 10
29.33700
 20
34.66700
 30
 0
 11
29.29700
 21
34.60400
  0
LINE
  8
Gravur
 62
   255
 39
0.400
  6
CONTINUOUS
 10
29.29700
 20
34.60400
 30
 0
 11
29.26400
 21
34.53400
  0
LINE
  8
Gravur
 62
   255
 39
0.400
  6
CONTINUOUS
 10
29.26400
 20
34.53400
 30
 0
 11
29.24100
 21
34.45900
  0
LINE
  8
Gravur
 62
   255
 39
0.400
  6
CONTINUOUS
 10
29.24100
 20
34.45900
 30
 0
 11
29.22700
 21
34.38000
  0
LINE
  8
Gravur
 62
   255
 39
0.400
  6
CONTINUOUS
 10
29.22700
 20
34.38000
 30
 0
 11
29.22200
 21
34.30000
  0
LINE
  8
Gravur
 62
   255
 39
0.400
  6
CONTINUOUS
 10
29.22200
 20
34.30000
 30
 0
 11
29.22200
 21
34.30000
  0
LINE
  8
Gravur
 62
   255
 39
0.400
  6
CONTINUOUS
 10
29.22200
 20
34.30000
 30
 0
 11
29.22200
 21
32.98000
  0
LINE
  8
Gravur
 62
   255
 39
0.400
  6
CONTINUOUS
 10
30.63000
 20
34.84000
 30
 0
 11
30.63000
 21
32.98000
  0
LINE
  8
Gravur
 62
   255
 39
0.400
  6
CONTINUOUS
 10
30.63000
 20
32.98000
 30
 0
 11
30.63500
 21
32.90000
  0
LINE
  8
Gravur
 62
   255
 39
0.400
  6
CONTINUOUS
 10
30.63500
 20
32.90000
 30
 0
 11
30.64900
 21
32.82100
  0
LINE
  8
Gravur
 62
   255
 39
0.400
  6
CONTINUOUS
 10
30.64900
 20
32.82100
 30
 0
 11
30.67200
 21
32.74600
  0
LINE
  8
Gravur
 62
   255
 39
0.400
  6
CONTINUOUS
 10
30.67200
 20
32.74600
 30
 0
 11
30.70500
 21
32.67600
  0
LINE
  8
Gravur
 62
   255
 39
0.400
  6
CONTINUOUS
 10
30.70500
 20
32.67600
 30
 0
 11
30.74500
 21
32.61300
  0
LINE
  8
Gravur
 62
   255
 39
0.400
  6
CONTINUOUS
 10
30.74500
 20
32.61300
 30
 0
 11
30.79200
 21
32.55800
  0
LINE
  8
Gravur
 62
   255
 39
0.400
  6
CONTINUOUS
 10
30.79200
 20
32.55800
 30
 0
 11
30.84600
 21
32.51200
  0
LINE
  8
Gravur
 62
   255
 39
0.400
  6
CONTINUOUS
 10
30.84600
 20
32.51200
 30
 0
 11
30.90400
 21
32.47700
  0
LINE
  8
Gravur
 62
   255
 39
0.400
  6
CONTINUOUS
 10
30.90400
 20
32.47700
 30
 0
 11
30.96600
 21
32.45400
  0
LINE
  8
Gravur
 62
   255
 39
0.400
  6
CONTINUOUS
 10
30.96600
 20
32.45400
 30
 0
 11
31.03000
 21
32.44200
  0
LINE
  8
Gravur
 62
   255
 39
0.400
  6
CONTINUOUS
 10
31.03000
 20
32.44200
 30
 0
 11
31.09400
 21
32.44200
  0
LINE
  8
Gravur
 62
   255
 39
0.400
  6
CONTINUOUS
 10
31.09400
 20
32.44200
 30
 0
 11
31.15800
 21
32.45400
  0
LINE
  8
Gravur
 62
   255
 39
0.400
  6
CONTINUOUS
 10
31.15800
 20
32.45400
 30
 0
 11
31.22000
 21
32.47700
  0
LINE
  8
Gravur
 62
   255
 39
0.400
  6
CONTINUOUS
 10
31.22000
 20
32.47700
 30
 0
 11
31.27800
 21
32.51200
  0
LINE
  8
Gravur
 62
   255
 39
0.400
  6
CONTINUOUS
 10
31.27800
 20
32.51200
 30
 0
 11
31.33200
 21
32.55800
  0
LINE
  8
Gravur
 62
   255
 39
0.400
  6
CONTINUOUS
 10
31.33200
 20
32.55800
 30
 0
 11
31.37900
 21
32.61300
  0
LINE
  8
Gravur
 62
   255
 39
0.400
  6
CONTINUOUS
 10
31.37900
 20
32.61300
 30
 0
 11
31.41900
 21
32.67600
  0
LINE
  8
Gravur
 62
   255
 39
0.400
  6
CONTINUOUS
 10
31.41900
 20
32.67600
 30
 0
 11
31.45200
 21
32.74600
  0
LINE
  8
Gravur
 62
   255
 39
0.400
  6
CONTINUOUS
 10
31.45200
 20
32.74600
 30
 0
 11
31.47500
 21
32.82100
  0
LINE
  8
Gravur
 62
   255
 39
0.400
  6
CONTINUOUS
 10
31.47500
 20
32.82100
 30
 0
 11
31.48900
 21
32.90000
  0
LINE
  8
Gravur
 62
   255
 39
0.400
  6
CONTINUOUS
 10
31.48900
 20
32.90000
 30
 0
 11
31.49400
 21
32.98000
  0
LINE
  8
Gravur
 62
   255
 39
0.400
  6
CONTINUOUS
 10
31.49400
 20
32.98000
 30
 0
 11
31.49400
 21
32.98000
  0
LINE
  8
Gravur
 62
   255
 39
0.400
  6
CONTINUOUS
 10
31.49400
 20
32.98000
 30
 0
 11
31.49400
 21
34.84000
  0
LINE
  8
Gravur
 62
   255
 39
0.400
  6
CONTINUOUS
 10
32.03800
 20
34.84000
 30
 0
 11
32.90200
 21
34.84000
  0
LINE
  8
Gravur
 62
   255
 39
0.400
  6
CONTINUOUS
 10
32.90200
 20
34.84000
 30
 0
 11
32.47000
 21
34.84000
  0
LINE
  8
Gravur
 62
   255
 39
0.400
  6
CONTINUOUS
 10
32.47000
 20
34.84000
 30
 0
 11
32.47000
 21
32.44000
  0
LINE
  8
Gravur
 62
   255
 39
0.400
  6
CONTINUOUS
 10
34.96600
 20
32.44000
 30
 0
 11
34.96600
 21
34.84000
  0
LINE
  8
Gravur
 62
   255
 39
0.400
  6
CONTINUOUS
 10
34.96600
 20
34.84000
 30
 0
 11
35.39800
 21
34.84000
  0
LINE
  8
Gravur
 62
   255
 39
0.400
  6
CONTINUOUS
 10
35.39800
 20
34.84000
 30
 0
 11
35.46900
 21
34.83300
  0
LINE
  8
Gravur
 62
   255
 39
0.400
  6
CONTINUOUS
 10
35.46900
 20
34.83300
 30
 0
 11
35.54000
 21
34.81300
  0
LINE
  8
Gravur
 62
   255
 39
0.400
  6
CONTINUOUS
 10
35.54000
 20
34.81300
 30
 0
 11
35.60600
 21
34.78100
  0
LINE
  8
Gravur
 62
   255
 39
0.400
  6
CONTINUOUS
 10
35.60600
 20
34.78100
 30
 0
 11
35.66800
 21
34.73600
  0
LINE
  8
Gravur
 62
   255
 39
0.400
  6
CONTINUOUS
 10
35.66800
 20
34.73600
 30
 0
 11
35.72400
 21
34.68000
  0
LINE
  8
Gravur
 62
   255
 39
0.400
  6
CONTINUOUS
 10
35.72400
 20
34.68000
 30
 0
 11
35.77300
 21
34.61400
  0
LINE
  8
Gravur
 62
   255
 39
0.400
  6
CONTINUOUS
 10
35.77300
 20
34.61400
 30
 0
 11
35.81400
 21
34.54000
  0
LINE
  8
Gravur
 62
   255
 39
0.400
  6
CONTINUOUS
 10
35.81400
 20
34.54000
 30
 0
 11
35.84500
 21
34.45900
  0
LINE
  8
Gravur
 62
   255
 39
0.400
  6
CONTINUOUS
 10
35.84500
 20
34.45900
 30
 0
 11
35.86600
 21
34.37400
  0
LINE
  8
Gravur
 62
   255
 39
0.400
  6
CONTINUOUS
 10
35.86600
 20
34.37400
 30
 0
 11
35.87600
 21
34.28500
  0
LINE
  8
Gravur
 62
   255
 39
0.400
  6
CONTINUOUS
 10
35.87600
 20
34.28500
 30
 0
 11
35.87600
 21
34.19500
  0
LINE
  8
Gravur
 62
   255
 39
0.400
  6
CONTINUOUS
 10
35.87600
 20
34.19500
 30
 0
 11
35.86600
 21
34.10600
  0
LINE
  8
Gravur
 62
   255
 39
0.400
  6
CONTINUOUS
 10
35.86600
 20
34.10600
 30
 0
 11
35.84500
 21
34.02100
  0
LINE
  8
Gravur
 62
   255
 39
0.400
  6
CONTINUOUS
 10
35.84500
 20
34.02100
 30
 0
 11
35.81400
 21
33.94000
  0
LINE
  8
Gravur
 62
   255
 39
0.400
  6
CONTINUOUS
 10
35.81400
 20
33.94000
 30
 0
 11
35.77300
 21
33.86600
  0
LINE
  8
Gravur
 62
   255
 39
0.400
  6
CONTINUOUS
 10
35.77300
 20
33.86600
 30
 0
 11
35.72400
 21
33.80000
  0
LINE
  8
Gravur
 62
   255
 39
0.400
  6
CONTINUOUS
 10
35.72400
 20
33.80000
 30
 0
 11
35.66800
 21
33.74400
  0
LINE
  8
Gravur
 62
   255
 39
0.400
  6
CONTINUOUS
 10
35.66800
 20
33.74400
 30
 0
 11
35.60600
 21
33.69900
  0
LINE
  8
Gravur
 62
   255
 39
0.400
  6
CONTINUOUS
 10
35.60600
 20
33.69900
 30
 0
 11
35.54000
 21
33.66700
  0
LINE
  8
Gravur
 62
   255
 39
0.400
  6
CONTINUOUS
 10
35.54000
 20
33.66700
 30
 0
 11
35.46900
 21
33.64700
  0
LINE
  8
Gravur
 62
   255
 39
0.400
  6
CONTINUOUS
 10
35.46900
 20
33.64700
 30
 0
 11
35.39800
 21
33.64000
  0
LINE
  8
Gravur
 62
   255
 39
0.400
  6
CONTINUOUS
 10
35.39800
 20
33.64000
 30
 0
 11
35.39800
 21
33.64000
  0
LINE
  8
Gravur
 62
   255
 39
0.400
  6
CONTINUOUS
 10
35.39800
 20
33.64000
 30
 0
 11
34.96600
 21
33.64000
  0
LINE
  8
Gravur
 62
   255
 39
0.400
  6
CONTINUOUS
 10
34.96600
 20
33.64000
 30
 0
 11
35.39800
 21
33.64000
  0
LINE
  8
Gravur
 62
   255
 39
0.400
  6
CONTINUOUS
 10
35.39800
 20
33.64000
 30
 0
 11
35.87800
 21
32.44000
  0
LINE
  8
Gravur
 62
   255
 39
0.400
  6
CONTINUOUS
 10
21.35500
 20
99.31800
 30
 0
 11
21.36000
 21
99.23800
  0
LINE
  8
Gravur
 62
   255
 39
0.400
  6
CONTINUOUS
 10
21.36000
 20
99.23800
 30
 0
 11
21.37400
 21
99.15900
  0
LINE
  8
Gravur
 62
   255
 39
0.400
  6
CONTINUOUS
 10
21.37400
 20
99.15900
 30
 0
 11
21.39700
 21
99.08400
  0
LINE
  8
Gravur
 62
   255
 39
0.400
  6
CONTINUOUS
 10
21.39700
 20
99.08400
 30
 0
 11
21.43000
 21
99.01400
  0
LINE
  8
Gravur
 62
   255
 39
0.400
  6
CONTINUOUS
 10
21.43000
 20
99.01400
 30
 0
 11
21.47000
 21
98.95100
  0
LINE
  8
Gravur
 62
   255
 39
0.400
  6
CONTINUOUS
 10
21.47000
 20
98.95100
 30
 0
 11
21.51700
 21
98.89600
  0
LINE
  8
Gravur
 62
   255
 39
0.400
  6
CONTINUOUS
 10
21.51700
 20
98.89600
 30
 0
 11
21.57100
 21
98.85000
  0
LINE
  8
Gravur
 62
   255
 39
0.400
  6
CONTINUOUS
 10
21.57100
 20
98.85000
 30
 0
 11
21.62900
 21
98.81500
  0
LINE
  8
Gravur
 62
   255
 39
0.400
  6
CONTINUOUS
 10
21.62900
 20
98.81500
 30
 0
 11
21.69100
 21
98.79200
  0
LINE
  8
Gravur
 62
   255
 39
0.400
  6
CONTINUOUS
 10
21.69100
 20
98.79200
 30
 0
 11
21.75500
 21
98.78000
  0
LINE
  8
Gravur
 62
   255
 39
0.400
  6
CONTINUOUS
 10
21.75500
 20
98.78000
 30
 0
 11
21.81900
 21
98.78000
  0
LINE
  8
Gravur
 62
   255
 39
0.400
  6
CONTINUOUS
 10
21.81900
 20
98.78000
 30
 0
 11
21.88300
 21
98.79200
  0
LINE
  8
Gravur
 62
   255
 39
0.400
  6
CONTINUOUS
 10
21.88300
 20
98.79200
 30
 0
 11
21.94500
 21
98.81500
  0
LINE
  8
Gravur
 62
   255
 39
0.400
  6
CONTINUOUS
 10
21.94500
 20
98.81500
 30
 0
 11
22.00300
 21
98.85000
  0
LINE
  8
Gravur
 62
   255
 39
0.400
  6
CONTINUOUS
 10
22.00300
 20
98.85000
 30
 0
 11
22.05700
 21
98.89600
  0
LINE
  8
Gravur
 62
   255
 39
0.400
  6
CONTINUOUS
 10
22.05700
 20
98.89600
 30
 0
 11
22.10400
 21
98.95100
  0
LINE
  8
Gravur
 62
   255
 39
0.400
  6
CONTINUOUS
 10
22.10400
 20
98.95100
 30
 0
 11
22.14400
 21
99.01400
  0
LINE
  8
Gravur
 62
   255
 39
0.400
  6
CONTINUOUS
 10
22.14400
 20
99.01400
 30
 0
 11
22.17700
 21
99.08400
  0
LINE
  8
Gravur
 62
   255
 39
0.400
  6
CONTINUOUS
 10
22.17700
 20
99.08400
 30
 0
 11
22.20000
 21
99.15900
  0
LINE
  8
Gravur
 62
   255
 39
0.400
  6
CONTINUOUS
 10
22.20000
 20
99.15900
 30
 0
 11
22.21400
 21
99.23800
  0
LINE
  8
Gravur
 62
   255
 39
0.400
  6
CONTINUOUS
 10
22.21400
 20
99.23800
 30
 0
 11
22.21900
 21
99.31800
  0
LINE
  8
Gravur
 62
   255
 39
0.400
  6
CONTINUOUS
 10
22.21900
 20
99.31800
 30
 0
 11
22.21900
 21
99.31800
  0
LINE
  8
Gravur
 62
   255
 39
0.400
  6
CONTINUOUS
 10
22.21900
 20
99.31800
 30
 0
 11
22.21900
 21
100.63800
  0
LINE
  8
Gravur
 62
   255
 39
0.400
  6
CONTINUOUS
 10
22.21900
 20
100.63800
 30
 0
 11
22.21400
 21
100.71800
  0
LINE
  8
Gravur
 62
   255
 39
0.400
  6
CONTINUOUS
 10
22.21400
 20
100.71800
 30
 0
 11
22.20000
 21
100.79700
  0
LINE
  8
Gravur
 62
   255
 39
0.400
  6
CONTINUOUS
 10
22.20000
 20
100.79700
 30
 0
 11
22.17700
 21
100.87200
  0
LINE
  8
Gravur
 62
   255
 39
0.400
  6
CONTINUOUS
 10
22.17700
 20
100.87200
 30
 0
 11
22.14400
 21
100.94200
  0
LINE
  8
Gravur
 62
   255
 39
0.400
  6
CONTINUOUS
 10
22.14400
 20
100.94200
 30
 0
 11
22.10400
 21
101.00500
  0
LINE
  8
Gravur
 62
   255
 39
0.400
  6
CONTINUOUS
 10
22.10400
 20
101.00500
 30
 0
 11
22.05700
 21
101.06000
  0
LINE
  8
Gravur
 62
   255
 39
0.400
  6
CONTINUOUS
 10
22.05700
 20
101.06000
 30
 0
 11
22.00300
 21
101.10600
  0
LINE
  8
Gravur
 62
   255
 39
0.400
  6
CONTINUOUS
 10
22.00300
 20
101.10600
 30
 0
 11
21.94500
 21
101.14100
  0
LINE
  8
Gravur
 62
   255
 39
0.400
  6
CONTINUOUS
 10
21.94500
 20
101.14100
 30
 0
 11
21.88300
 21
101.16400
  0
LINE
  8
Gravur
 62
   255
 39
0.400
  6
CONTINUOUS
 10
21.88300
 20
101.16400
 30
 0
 11
21.81900
 21
101.17600
  0
LINE
  8
Gravur
 62
   255
 39
0.400
  6
CONTINUOUS
 10
21.81900
 20
101.17600
 30
 0
 11
21.75500
 21
101.17600
  0
LINE
  8
Gravur
 62
   255
 39
0.400
  6
CONTINUOUS
 10
21.75500
 20
101.17600
 30
 0
 11
21.69100
 21
101.16400
  0
LINE
  8
Gravur
 62
   255
 39
0.400
  6
CONTINUOUS
 10
21.69100
 20
101.16400
 30
 0
 11
21.62900
 21
101.14100
  0
LINE
  8
Gravur
 62
   255
 39
0.400
  6
CONTINUOUS
 10
21.62900
 20
101.14100
 30
 0
 11
21.57100
 21
101.10600
  0
LINE
  8
Gravur
 62
   255
 39
0.400
  6
CONTINUOUS
 10
21.57100
 20
101.10600
 30
 0
 11
21.51700
 21
101.06000
  0
LINE
  8
Gravur
 62
   255
 39
0.400
  6
CONTINUOUS
 10
21.51700
 20
101.06000
 30
 0
 11
21.47000
 21
101.00500
  0
LINE
  8
Gravur
 62
   255
 39
0.400
  6
CONTINUOUS
 10
21.47000
 20
101.00500
 30
 0
 11
21.43000
 21
100.94200
  0
LINE
  8
Gravur
 62
   255
 39
0.400
  6
CONTINUOUS
 10
21.43000
 20
100.94200
 30
 0
 11
21.39700
 21
100.87200
  0
LINE
  8
Gravur
 62
   255
 39
0.400
  6
CONTINUOUS
 10
21.39700
 20
100.87200
 30
 0
 11
21.37400
 21
100.79700
  0
LINE
  8
Gravur
 62
   255
 39
0.400
  6
CONTINUOUS
 10
21.37400
 20
100.79700
 30
 0
 11
21.36000
 21
100.71800
  0
LINE
  8
Gravur
 62
   255
 39
0.400
  6
CONTINUOUS
 10
21.36000
 20
100.71800
 30
 0
 11
21.35500
 21
100.63800
  0
LINE
  8
Gravur
 62
   255
 39
0.400
  6
CONTINUOUS
 10
21.35500
 20
100.63800
 30
 0
 11
21.35500
 21
100.63800
  0
LINE
  8
Gravur
 62
   255
 39
0.400
  6
CONTINUOUS
 10
21.35500
 20
100.63800
 30
 0
 11
21.35500
 21
99.31800
  0
LINE
  8
Gravur
 62
   255
 39
0.400
  6
CONTINUOUS
 10
22.76300
 20
98.77800
 30
 0
 11
22.76300
 21
101.17800
  0
LINE
  8
Gravur
 62
   255
 39
0.400
  6
CONTINUOUS
 10
22.76300
 20
101.17800
 30
 0
 11
23.62700
 21
98.77800
  0
LINE
  8
Gravur
 62
   255
 39
0.400
  6
CONTINUOUS
 10
23.62700
 20
98.77800
 30
 0
 11
23.62700
 21
101.17800
  0
LINE
  8
Gravur
 62
   255
 39
0.400
  6
CONTINUOUS
 10
18.01200
 20
85.99000
 30
 0
 11
18.01200
 21
83.59000
  0
LINE
  8
Gravur
 62
   255
 39
0.400
  6
CONTINUOUS
 10
18.01200
 20
83.59000
 30
 0
 11
18.44400
 21
83.59000
  0
LINE
  8
Gravur
 62
   255
 39
0.400
  6
CONTINUOUS
 10
18.44400
 20
83.59000
 30
 0
 11
18.51700
 21
83.59700
  0
LINE
  8
Gravur
 62
   255
 39
0.400
  6
CONTINUOUS
 10
18.51700
 20
83.59700
 30
 0
 11
18.58800
 21
83.61700
  0
LINE
  8
Gravur
 62
   255
 39
0.400
  6
CONTINUOUS
 10
18.58800
 20
83.61700
 30
 0
 11
18.65600
 21
83.65000
  0
LINE
  8
Gravur
 62
   255
 39
0.400
  6
CONTINUOUS
 10
18.65600
 20
83.65000
 30
 0
 11
18.71900
 21
83.69600
  0
LINE
  8
Gravur
 62
   255
 39
0.400
  6
CONTINUOUS
 10
18.71900
 20
83.69600
 30
 0
 11
18.77600
 21
83.75300
  0
LINE
  8
Gravur
 62
   255
 39
0.400
  6
CONTINUOUS
 10
18.77600
 20
83.75300
 30
 0
 11
18.82600
 21
83.82000
  0
LINE
  8
Gravur
 62
   255
 39
0.400
  6
CONTINUOUS
 10
18.82600
 20
83.82000
 30
 0
 11
18.86600
 21
83.89500
  0
LINE
  8
Gravur
 62
   255
 39
0.400
  6
CONTINUOUS
 10
18.86600
 20
83.89500
 30
 0
 11
18.89800
 21
83.97700
  0
LINE
  8
Gravur
 62
   255
 39
0.400
  6
CONTINUOUS
 10
18.89800
 20
83.97700
 30
 0
 11
18.92000
 21
84.06400
  0
LINE
  8
Gravur
 62
   255
 39
0.400
  6
CONTINUOUS
 10
18.92000
 20
84.06400
 30
 0
 11
18.93000
 21
84.15400
  0
LINE
  8
Gravur
 62
   255
 39
0.400
  6
CONTINUOUS
 10
18.93000
 20
84.15400
 30
 0
 11
18.93000
 21
84.24600
  0
LINE
  8
Gravur
 62
   255
 39
0.400
  6
CONTINUOUS
 10
18.93000
 20
84.24600
 30
 0
 11
18.92000
 21
84.33600
  0
LINE
  8
Gravur
 62
   255
 39
0.400
  6
CONTINUOUS
 10
18.92000
 20
84.33600
 30
 0
 11
18.89800
 21
84.42300
  0
LINE
  8
Gravur
 62
   255
 39
0.400
  6
CONTINUOUS
 10
18.89800
 20
84.42300
 30
 0
 11
18.86600
 21
84.50500
  0
LINE
  8
Gravur
 62
   255
 39
0.400
  6
CONTINUOUS
 10
18.86600
 20
84.50500
 30
 0
 11
18.82600
 21
84.58000
  0
LINE
  8
Gravur
 62
   255
 39
0.400
  6
CONTINUOUS
 10
18.82600
 20
84.58000
 30
 0
 11
18.77600
 21
84.64700
  0
LINE
  8
Gravur
 62
   255
 39
0.400
  6
CONTINUOUS
 10
18.77600
 20
84.64700
 30
 0
 11
18.71900
 21
84.70400
  0
LINE
  8
Gravur
 62
   255
 39
0.400
  6
CONTINUOUS
 10
18.71900
 20
84.70400
 30
 0
 11
18.65600
 21
84.75000
  0
LINE
  8
Gravur
 62
   255
 39
0.400
  6
CONTINUOUS
 10
18.65600
 20
84.75000
 30
 0
 11
18.58800
 21
84.78300
  0
LINE
  8
Gravur
 62
   255
 39
0.400
  6
CONTINUOUS
 10
18.58800
 20
84.78300
 30
 0
 11
18.51700
 21
84.80300
  0
LINE
  8
Gravur
 62
   255
 39
0.400
  6
CONTINUOUS
 10
18.51700
 20
84.80300
 30
 0
 11
18.44400
 21
84.81000
  0
LINE
  8
Gravur
 62
   255
 39
0.400
  6
CONTINUOUS
 10
18.44400
 20
84.81000
 30
 0
 11
18.44400
 21
84.81000
  0
LINE
  8
Gravur
 62
   255
 39
0.400
  6
CONTINUOUS
 10
18.44400
 20
84.81000
 30
 0
 11
18.01200
 21
84.81000
  0
LINE
  8
Gravur
 62
   255
 39
0.400
  6
CONTINUOUS
 10
18.01200
 20
84.81000
 30
 0
 11
18.44400
 21
84.81000
  0
LINE
  8
Gravur
 62
   255
 39
0.400
  6
CONTINUOUS
 10
18.44400
 20
84.81000
 30
 0
 11
18.51400
 21
84.82000
  0
LINE
  8
Gravur
 62
   255
 39
0.400
  6
CONTINUOUS
 10
18.51400
 20
84.82000
 30
 0
 11
18.58200
 21
84.84200
  0
LINE
  8
Gravur
 62
   255
 39
0.400
  6
CONTINUOUS
 10
18.58200
 20
84.84200
 30
 0
 11
18.64700
 21
84.87700
  0
LINE
  8
Gravur
 62
   255
 39
0.400
  6
CONTINUOUS
 10
18.64700
 20
84.87700
 30
 0
 11
18.70700
 21
84.92400
  0
LINE
  8
Gravur
 62
   255
 39
0.400
  6
CONTINUOUS
 10
18.70700
 20
84.92400
 30
 0
 11
18.76100
 21
84.98100
  0
LINE
  8
Gravur
 62
   255
 39
0.400
  6
CONTINUOUS
 10
18.76100
 20
84.98100
 30
 0
 11
18.80700
 21
85.04800
  0
LINE
  8
Gravur
 62
   255
 39
0.400
  6
CONTINUOUS
 10
18.80700
 20
85.04800
 30
 0
 11
18.84500
 21
85.12200
  0
LINE
  8
Gravur
 62
   255
 39
0.400
  6
CONTINUOUS
 10
18.84500
 20
85.12200
 30
 0
 11
18.87400
 21
85.20300
  0
LINE
  8
Gravur
 62
   255
 39
0.400
  6
CONTINUOUS
 10
18.87400
 20
85.20300
 30
 0
 11
18.89200
 21
85.28800
  0
LINE
  8
Gravur
 62
   255
 39
0.400
  6
CONTINUOUS
 10
18.89200
 20
85.28800
 30
 0
 11
18.90000
 21
85.37600
  0
LINE
  8
Gravur
 62
   255
 39
0.400
  6
CONTINUOUS
 10
18.90000
 20
85.37600
 30
 0
 11
18.89800
 21
85.46400
  0
LINE
  8
Gravur
 62
   255
 39
0.400
  6
CONTINUOUS
 10
18.89800
 20
85.46400
 30
 0
 11
18.88500
 21
85.55100
  0
LINE
  8
Gravur
 62
   255
 39
0.400
  6
CONTINUOUS
 10
18.88500
 20
85.55100
 30
 0
 11
18.86200
 21
85.63400
  0
LINE
  8
Gravur
 62
   255
 39
0.400
  6
CONTINUOUS
 10
18.86200
 20
85.63400
 30
 0
 11
18.82900
 21
85.71200
  0
LINE
  8
Gravur
 62
   255
 39
0.400
  6
CONTINUOUS
 10
18.82900
 20
85.71200
 30
 0
 11
18.78700
 21
85.78300
  0
LINE
  8
Gravur
 62
   255
 39
0.400
  6
CONTINUOUS
 10
18.78700
 20
85.78300
 30
 0
 11
18.73800
 21
85.84600
  0
LINE
  8
Gravur
 62
   255
 39
0.400
  6
CONTINUOUS
 10
18.73800
 20
85.84600
 30
 0
 11
18.68100
 21
85.89900
  0
LINE
  8
Gravur
 62
   255
 39
0.400
  6
CONTINUOUS
 10
18.68100
 20
85.89900
 30
 0
 11
18.61800
 21
85.94000
  0
LINE
  8
Gravur
 62
   255
 39
0.400
  6
CONTINUOUS
 10
18.61800
 20
85.94000
 30
 0
 11
18.55200
 21
85.97000
  0
LINE
  8
Gravur
 62
   255
 39
0.400
  6
CONTINUOUS
 10
18.55200
 20
85.97000
 30
 0
 11
18.48200
 21
85.98600
  0
LINE
  8
Gravur
 62
   255
 39
0.400
  6
CONTINUOUS
 10
18.48200
 20
85.98600
 30
 0
 11
18.41200
 21
85.99000
  0
LINE
  8
Gravur
 62
   255
 39
0.400
  6
CONTINUOUS
 10
18.41200
 20
85.99000
 30
 0
 11
18.41200
 21
85.99000
  0
LINE
  8
Gravur
 62
   255
 39
0.400
  6
CONTINUOUS
 10
18.41200
 20
85.99000
 30
 0
 11
18.01200
 21
85.99000
  0
LINE
  8
Gravur
 62
   255
 39
0.400
  6
CONTINUOUS
 10
19.48400
 20
85.99000
 30
 0
 11
19.91600
 21
84.49000
  0
LINE
  8
Gravur
 62
   255
 39
0.400
  6
CONTINUOUS
 10
19.91600
 20
84.49000
 30
 0
 11
19.91600
 21
83.59000
  0
LINE
  8
Gravur
 62
   255
 39
0.400
  6
CONTINUOUS
 10
19.91600
 20
83.59000
 30
 0
 11
19.91600
 21
84.49000
  0
LINE
  8
Gravur
 62
   255
 39
0.400
  6
CONTINUOUS
 10
19.91600
 20
84.49000
 30
 0
 11
20.34800
 21
85.99000
  0
LINE
  8
Gravur
 62
   255
 39
0.400
  6
CONTINUOUS
 10
20.87600
 20
84.79000
 30
 0
 11
21.30800
 21
84.79000
  0
LINE
  8
Gravur
 62
   255
 39
0.400
  6
CONTINUOUS
 10
21.30800
 20
84.79000
 30
 0
 11
21.37900
 21
84.79700
  0
LINE
  8
Gravur
 62
   255
 39
0.400
  6
CONTINUOUS
 10
21.37900
 20
84.79700
 30
 0
 11
21.45000
 21
84.81700
  0
LINE
  8
Gravur
 62
   255
 39
0.400
  6
CONTINUOUS
 10
21.45000
 20
84.81700
 30
 0
 11
21.51600
 21
84.84900
  0
LINE
  8
Gravur
 62
   255
 39
0.400
  6
CONTINUOUS
 10
21.51600
 20
84.84900
 30
 0
 11
21.57800
 21
84.89400
  0
LINE
  8
Gravur
 62
   255
 39
0.400
  6
CONTINUOUS
 10
21.57800
 20
84.89400
 30
 0
 11
21.63400
 21
84.95000
  0
LINE
  8
Gravur
 62
   255
 39
0.400
  6
CONTINUOUS
 10
21.63400
 20
84.95000
 30
 0
 11
21.68300
 21
85.01600
  0
LINE
  8
Gravur
 62
   255
 39
0.400
  6
CONTINUOUS
 10
21.68300
 20
85.01600
 30
 0
 11
21.72400
 21
85.09000
  0
LINE
  8
Gravur
 62
   255
 39
0.400
  6
CONTINUOUS
 10
21.72400
 20
85.09000
 30
 0
 11
21.75500
 21
85.17100
  0
LINE
  8
Gravur
 62
   255
 39
0.400
  6
CONTINUOUS
 10
21.75500
 20
85.17100
 30
 0
 11
21.77600
 21
85.25600
  0
LINE
  8
Gravur
 62
   255
 39
0.400
  6
CONTINUOUS
 10
21.77600
 20
85.25600
 30
 0
 11
21.78600
 21
85.34500
  0
LINE
  8
Gravur
 62
   255
 39
0.400
  6
CONTINUOUS
 10
21.78600
 20
85.34500
 30
 0
 11
21.78600
 21
85.43500
  0
LINE
  8
Gravur
 62
   255
 39
0.400
  6
CONTINUOUS
 10
21.78600
 20
85.43500
 30
 0
 11
21.77600
 21
85.52400
  0
LINE
  8
Gravur
 62
   255
 39
0.400
  6
CONTINUOUS
 10
21.77600
 20
85.52400
 30
 0
 11
21.75500
 21
85.60900
  0
LINE
  8
Gravur
 62
   255
 39
0.400
  6
CONTINUOUS
 10
21.75500
 20
85.60900
 30
 0
 11
21.72400
 21
85.69000
  0
LINE
  8
Gravur
 62
   255
 39
0.400
  6
CONTINUOUS
 10
21.72400
 20
85.69000
 30
 0
 11
21.68300
 21
85.76400
  0
LINE
  8
Gravur
 62
   255
 39
0.400
  6
CONTINUOUS
 10
21.68300
 20
85.76400
 30
 0
 11
21.63400
 21
85.83000
  0
LINE
  8
Gravur
 62
   255
 39
0.400
  6
CONTINUOUS
 10
21.63400
 20
85.83000
 30
 0
 11
21.57800
 21
85.88600
  0
LINE
  8
Gravur
 62
   255
 39
0.400
  6
CONTINUOUS
 10
21.57800
 20
85.88600
 30
 0
 11
21.51600
 21
85.93100
  0
LINE
  8
Gravur
 62
   255
 39
0.400
  6
CONTINUOUS
 10
21.51600
 20
85.93100
 30
 0
 11
21.45000
 21
85.96300
  0
LINE
  8
Gravur
 62
   255
 39
0.400
  6
CONTINUOUS
 10
21.45000
 20
85.96300
 30
 0
 11
21.37900
 21
85.98300
  0
LINE
  8
Gravur
 62
   255
 39
0.400
  6
CONTINUOUS
 10
21.37900
 20
85.98300
 30
 0
 11
21.30800
 21
85.99000
  0
LINE
  8
Gravur
 62
   255
 39
0.400
  6
CONTINUOUS
 10
21.30800
 20
85.99000
 30
 0
 11
21.30800
 21
85.99000
  0
LINE
  8
Gravur
 62
   255
 39
0.400
  6
CONTINUOUS
 10
21.30800
 20
85.99000
 30
 0
 11
20.87600
 21
85.99000
  0
LINE
  8
Gravur
 62
   255
 39
0.400
  6
CONTINUOUS
 10
20.87600
 20
85.99000
 30
 0
 11
20.87600
 21
83.59000
  0
LINE
  8
Gravur
 62
   255
 39
0.400
  6
CONTINUOUS
 10
22.33200
 20
83.59000
 30
 0
 11
22.90800
 21
85.99000
  0
LINE
  8
Gravur
 62
   255
 39
0.400
  6
CONTINUOUS
 10
22.90800
 20
85.99000
 30
 0
 11
23.48400
 21
83.59000
  0
LINE
  8
Gravur
 62
   255
 39
0.400
  6
CONTINUOUS
 10
22.52400
 20
84.31000
 30
 0
 11
23.29200
 21
84.31000
  0
LINE
  8
Gravur
 62
   255
 39
0.400
  6
CONTINUOUS
 10
24.02800
 20
84.19000
 30
 0
 11
24.03400
 21
84.10100
  0
LINE
  8
Gravur
 62
   255
 39
0.400
  6
CONTINUOUS
 10
24.03400
 20
84.10100
 30
 0
 11
24.05000
 21
84.01300
  0
LINE
  8
Gravur
 62
   255
 39
0.400
  6
CONTINUOUS
 10
24.05000
 20
84.01300
 30
 0
 11
24.07500
 21
83.93000
  0
LINE
  8
Gravur
 62
   255
 39
0.400
  6
CONTINUOUS
 10
24.07500
 20
83.93000
 30
 0
 11
24.11100
 21
83.85200
  0
LINE
  8
Gravur
 62
   255
 39
0.400
  6
CONTINUOUS
 10
24.11100
 20
83.85200
 30
 0
 11
24.15600
 21
83.78200
  0
LINE
  8
Gravur
 62
   255
 39
0.400
  6
CONTINUOUS
 10
24.15600
 20
83.78200
 30
 0
 11
24.20900
 21
83.72100
  0
LINE
  8
Gravur
 62
   255
 39
0.400
  6
CONTINUOUS
 10
24.20900
 20
83.72100
 30
 0
 11
24.26800
 21
83.67000
  0
LINE
  8
Gravur
 62
   255
 39
0.400
  6
CONTINUOUS
 10
24.26800
 20
83.67000
 30
 0
 11
24.33300
 21
83.63100
  0
LINE
  8
Gravur
 62
   255
 39
0.400
  6
CONTINUOUS
 10
24.33300
 20
83.63100
 30
 0
 11
24.40100
 21
83.60500
  0
LINE
  8
Gravur
 62
   255
 39
0.400
  6
CONTINUOUS
 10
24.40100
 20
83.60500
 30
 0
 11
24.47200
 21
83.59200
  0
LINE
  8
Gravur
 62
   255
 39
0.400
  6
CONTINUOUS
 10
24.47200
 20
83.59200
 30
 0
 11
24.54400
 21
83.59200
  0
LINE
  8
Gravur
 62
   255
 39
0.400
  6
CONTINUOUS
 10
24.54400
 20
83.59200
 30
 0
 11
24.61500
 21
83.60500
  0
LINE
  8
Gravur
 62
   255
 39
0.400
  6
CONTINUOUS
 10
24.61500
 20
83.60500
 30
 0
 11
24.68300
 21
83.63100
  0
LINE
  8
Gravur
 62
   255
 39
0.400
  6
CONTINUOUS
 10
24.68300
 20
83.63100
 30
 0
 11
24.74800
 21
83.67000
  0
LINE
  8
Gravur
 62
   255
 39
0.400
  6
CONTINUOUS
 10
24.74800
 20
83.67000
 30
 0
 11
24.80700
 21
83.72100
  0
LINE
  8
Gravur
 62
   255
 39
0.400
  6
CONTINUOUS
 10
24.80700
 20
83.72100
 30
 0
 11
24.86000
 21
83.78200
  0
LINE
  8
Gravur
 62
   255
 39
0.400
  6
CONTINUOUS
 10
24.86000
 20
83.78200
 30
 0
 11
24.90500
 21
83.85200
  0
LINE
  8
Gravur
 62
   255
 39
0.400
  6
CONTINUOUS
 10
24.90500
 20
83.85200
 30
 0
 11
24.94100
 21
83.93000
  0
LINE
  8
Gravur
 62
   255
 39
0.400
  6
CONTINUOUS
 10
24.94100
 20
83.93000
 30
 0
 11
24.96600
 21
84.01300
  0
LINE
  8
Gravur
 62
   255
 39
0.400
  6
CONTINUOUS
 10
24.96600
 20
84.01300
 30
 0
 11
24.98200
 21
84.10100
  0
LINE
  8
Gravur
 62
   255
 39
0.400
  6
CONTINUOUS
 10
24.98200
 20
84.10100
 30
 0
 11
24.98800
 21
84.19000
  0
LINE
  8
Gravur
 62
   255
 39
0.400
  6
CONTINUOUS
 10
24.98800
 20
84.19000
 30
 0
 11
24.98800
 21
84.19000
  0
LINE
  8
Gravur
 62
   255
 39
0.400
  6
CONTINUOUS
 10
24.98800
 20
84.19000
 30
 0
 11
24.98300
 21
84.27600
  0
LINE
  8
Gravur
 62
   255
 39
0.400
  6
CONTINUOUS
 10
24.98300
 20
84.27600
 30
 0
 11
24.96900
 21
84.35900
  0
LINE
  8
Gravur
 62
   255
 39
0.400
  6
CONTINUOUS
 10
24.96900
 20
84.35900
 30
 0
 11
24.94600
 21
84.44000
  0
LINE
  8
Gravur
 62
   255
 39
0.400
  6
CONTINUOUS
 10
24.94600
 20
84.44000
 30
 0
 11
24.91300
 21
84.51500
  0
LINE
  8
Gravur
 62
   255
 39
0.400
  6
CONTINUOUS
 10
24.91300
 20
84.51500
 30
 0
 11
24.87100
 21
84.58400
  0
LINE
  8
Gravur
 62
   255
 39
0.400
  6
CONTINUOUS
 10
24.87100
 20
84.58400
 30
 0
 11
24.82300
 21
84.64400
  0
LINE
  8
Gravur
 62
   255
 39
0.400
  6
CONTINUOUS
 10
24.82300
 20
84.64400
 30
 0
 11
24.76800
 21
84.69600
  0
LINE
  8
Gravur
 62
   255
 39
0.400
  6
CONTINUOUS
 10
24.76800
 20
84.69600
 30
 0
 11
24.70800
 21
84.73700
  0
LINE
  8
Gravur
 62
   255
 39
0.400
  6
CONTINUOUS
 10
24.70800
 20
84.73700
 30
 0
 11
24.64300
 21
84.76600
  0
LINE
  8
Gravur
 62
   255
 39
0.400
  6
CONTINUOUS
 10
24.64300
 20
84.76600
 30
 0
 11
24.57700
 21
84.78400
  0
LINE
  8
Gravur
 62
   255
 39
0.400
  6
CONTINUOUS
 10
24.57700
 20
84.78400
 30
 0
 11
24.50800
 21
84.79000
  0
LINE
  8
Gravur
 62
   255
 39
0.400
  6
CONTINUOUS
 10
24.50800
 20
84.79000
 30
 0
 11
24.50800
 21
84.79000
  0
LINE
  8
Gravur
 62
   255
 39
0.400
  6
CONTINUOUS
 10
24.50800
 20
84.79000
 30
 0
 11
24.43700
 21
84.79700
  0
LINE
  8
Gravur
 62
   255
 39
0.400
  6
CONTINUOUS
 10
24.43700
 20
84.79700
 30
 0
 11
24.36600
 21
84.81700
  0
LINE
  8
Gravur
 62
   255
 39
0.400
  6
CONTINUOUS
 10
24.36600
 20
84.81700
 30
 0
 11
24.30000
 21
84.84900
  0
LINE
  8
Gravur
 62
   255
 39
0.400
  6
CONTINUOUS
 10
24.30000
 20
84.84900
 30
 0
 11
24.23800
 21
84.89400
  0
LINE
  8
Gravur
 62
   255
 39
0.400
  6
CONTINUOUS
 10
24.23800
 20
84.89400
 30
 0
 11
24.18200
 21
84.95000
  0
LINE
  8
Gravur
 62
   255
 39
0.400
  6
CONTINUOUS
 10
24.18200
 20
84.95000
 30
 0
 11
24.13300
 21
85.01600
  0
LINE
  8
Gravur
 62
   255
 39
0.400
  6
CONTINUOUS
 10
24.13300
 20
85.01600
 30
 0
 11
24.09200
 21
85.09000
  0
LINE
  8
Gravur
 62
   255
 39
0.400
  6
CONTINUOUS
 10
24.09200
 20
85.09000
 30
 0
 11
24.06100
 21
85.17100
  0
LINE
  8
Gravur
 62
   255
 39
0.400
  6
CONTINUOUS
 10
24.06100
 20
85.17100
 30
 0
 11
24.04000
 21
85.25600
  0
LINE
  8
Gravur
 62
   255
 39
0.400
  6
CONTINUOUS
 10
24.04000
 20
85.25600
 30
 0
 11
24.03000
 21
85.34500
  0
LINE
  8
Gravur
 62
   255
 39
0.400
  6
CONTINUOUS
 10
24.03000
 20
85.34500
 30
 0
 11
24.03000
 21
85.43500
  0
LINE
  8
Gravur
 62
   255
 39
0.400
  6
CONTINUOUS
 10
24.03000
 20
85.43500
 30
 0
 11
24.04000
 21
85.52400
  0
LINE
  8
Gravur
 62
   255
 39
0.400
  6
CONTINUOUS
 10
24.04000
 20
85.52400
 30
 0
 11
24.06100
 21
85.60900
  0
LINE
  8
Gravur
 62
   255
 39
0.400
  6
CONTINUOUS
 10
24.06100
 20
85.60900
 30
 0
 11
24.09200
 21
85.69000
  0
LINE
  8
Gravur
 62
   255
 39
0.400
  6
CONTINUOUS
 10
24.09200
 20
85.69000
 30
 0
 11
24.13300
 21
85.76400
  0
LINE
  8
Gravur
 62
   255
 39
0.400
  6
CONTINUOUS
 10
24.13300
 20
85.76400
 30
 0
 11
24.18200
 21
85.83000
  0
LINE
  8
Gravur
 62
   255
 39
0.400
  6
CONTINUOUS
 10
24.18200
 20
85.83000
 30
 0
 11
24.23800
 21
85.88600
  0
LINE
  8
Gravur
 62
   255
 39
0.400
  6
CONTINUOUS
 10
24.23800
 20
85.88600
 30
 0
 11
24.30000
 21
85.93100
  0
LINE
  8
Gravur
 62
   255
 39
0.400
  6
CONTINUOUS
 10
24.30000
 20
85.93100
 30
 0
 11
24.36600
 21
85.96300
  0
LINE
  8
Gravur
 62
   255
 39
0.400
  6
CONTINUOUS
 10
24.36600
 20
85.96300
 30
 0
 11
24.43700
 21
85.98300
  0
LINE
  8
Gravur
 62
   255
 39
0.400
  6
CONTINUOUS
 10
24.43700
 20
85.98300
 30
 0
 11
24.50800
 21
85.99000
  0
LINE
  8
Gravur
 62
   255
 39
0.400
  6
CONTINUOUS
 10
24.50800
 20
85.99000
 30
 0
 11
24.50800
 21
85.99000
  0
LINE
  8
Gravur
 62
   255
 39
0.400
  6
CONTINUOUS
 10
24.50800
 20
85.99000
 30
 0
 11
24.57800
 21
85.98400
  0
LINE
  8
Gravur
 62
   255
 39
0.400
  6
CONTINUOUS
 10
24.57800
 20
85.98400
 30
 0
 11
24.64600
 21
85.96500
  0
LINE
  8
Gravur
 62
   255
 39
0.400
  6
CONTINUOUS
 10
24.64600
 20
85.96500
 30
 0
 11
24.71200
 21
85.93400
  0
LINE
  8
Gravur
 62
   255
 39
0.400
  6
CONTINUOUS
 10
24.71200
 20
85.93400
 30
 0
 11
24.77400
 21
85.89100
  0
LINE
  8
Gravur
 62
   255
 39
0.400
  6
CONTINUOUS
 10
24.77400
 20
85.89100
 30
 0
 11
24.82900
 21
85.83800
  0
LINE
  8
Gravur
 62
   255
 39
0.400
  6
CONTINUOUS
 10
24.82900
 20
85.83800
 30
 0
 11
24.87800
 21
85.77500
  0
LINE
  8
Gravur
 62
   255
 39
0.400
  6
CONTINUOUS
 10
24.87800
 20
85.77500
 30
 0
 11
24.91800
 21
85.70400
  0
LINE
  8
Gravur
 62
   255
 39
0.400
  6
CONTINUOUS
 10
24.91800
 20
85.70400
 30
 0
 11
24.95000
 21
85.62600
  0
LINE
  8
Gravur
 62
   255
 39
0.400
  6
CONTINUOUS
 10
24.95000
 20
85.62600
 30
 0
 11
24.97300
 21
85.54300
  0
LINE
  8
Gravur
 62
   255
 39
0.400
  6
CONTINUOUS
 10
24.97300
 20
85.54300
 30
 0
 11
24.98600
 21
85.45600
  0
LINE
  8
Gravur
 62
   255
 39
0.400
  6
CONTINUOUS
 10
24.98600
 20
85.45600
 30
 0
 11
24.98800
 21
85.39000
  0
LINE
  8
Gravur
 62
   255
 39
0.400
  6
CONTINUOUS
 10
25.53200
 20
84.19000
 30
 0
 11
25.53800
 21
84.10100
  0
LINE
  8
Gravur
 62
   255
 39
0.400
  6
CONTINUOUS
 10
25.53800
 20
84.10100
 30
 0
 11
25.55400
 21
84.01300
  0
LINE
  8
Gravur
 62
   255
 39
0.400
  6
CONTINUOUS
 10
25.55400
 20
84.01300
 30
 0
 11
25.57900
 21
83.93000
  0
LINE
  8
Gravur
 62
   255
 39
0.400
  6
CONTINUOUS
 10
25.57900
 20
83.93000
 30
 0
 11
25.61500
 21
83.85200
  0
LINE
  8
Gravur
 62
   255
 39
0.400
  6
CONTINUOUS
 10
25.61500
 20
83.85200
 30
 0
 11
25.66000
 21
83.78200
  0
LINE
  8
Gravur
 62
   255
 39
0.400
  6
CONTINUOUS
 10
25.66000
 20
83.78200
 30
 0
 11
25.71300
 21
83.72100
  0
LINE
  8
Gravur
 62
   255
 39
0.400
  6
CONTINUOUS
 10
25.71300
 20
83.72100
 30
 0
 11
25.77200
 21
83.67000
  0
LINE
  8
Gravur
 62
   255
 39
0.400
  6
CONTINUOUS
 10
25.77200
 20
83.67000
 30
 0
 11
25.83700
 21
83.63100
  0
LINE
  8
Gravur
 62
   255
 39
0.400
  6
CONTINUOUS
 10
25.83700
 20
83.63100
 30
 0
 11
25.90500
 21
83.60500
  0
LINE
  8
Gravur
 62
   255
 39
0.400
  6
CONTINUOUS
 10
25.90500
 20
83.60500
 30
 0
 11
25.97600
 21
83.59200
  0
LINE
  8
Gravur
 62
   255
 39
0.400
  6
CONTINUOUS
 10
25.97600
 20
83.59200
 30
 0
 11
26.04800
 21
83.59200
  0
LINE
  8
Gravur
 62
   255
 39
0.400
  6
CONTINUOUS
 10
26.04800
 20
83.59200
 30
 0
 11
26.11900
 21
83.60500
  0
LINE
  8
Gravur
 62
   255
 39
0.400
  6
CONTINUOUS
 10
26.11900
 20
83.60500
 30
 0
 11
26.18700
 21
83.63100
  0
LINE
  8
Gravur
 62
   255
 39
0.400
  6
CONTINUOUS
 10
26.18700
 20
83.63100
 30
 0
 11
26.25200
 21
83.67000
  0
LINE
  8
Gravur
 62
   255
 39
0.400
  6
CONTINUOUS
 10
26.25200
 20
83.67000
 30
 0
 11
26.31100
 21
83.72100
  0
LINE
  8
Gravur
 62
   255
 39
0.400
  6
CONTINUOUS
 10
26.31100
 20
83.72100
 30
 0
 11
26.36400
 21
83.78200
  0
LINE
  8
Gravur
 62
   255
 39
0.400
  6
CONTINUOUS
 10
26.36400
 20
83.78200
 30
 0
 11
26.40900
 21
83.85200
  0
LINE
  8
Gravur
 62
   255
 39
0.400
  6
CONTINUOUS
 10
26.40900
 20
83.85200
 30
 0
 11
26.44500
 21
83.93000
  0
LINE
  8
Gravur
 62
   255
 39
0.400
  6
CONTINUOUS
 10
26.44500
 20
83.93000
 30
 0
 11
26.47000
 21
84.01300
  0
LINE
  8
Gravur
 62
   255
 39
0.400
  6
CONTINUOUS
 10
26.47000
 20
84.01300
 30
 0
 11
26.48600
 21
84.10100
  0
LINE
  8
Gravur
 62
   255
 39
0.400
  6
CONTINUOUS
 10
26.48600
 20
84.10100
 30
 0
 11
26.49200
 21
84.19000
  0
LINE
  8
Gravur
 62
   255
 39
0.400
  6
CONTINUOUS
 10
26.49200
 20
84.19000
 30
 0
 11
26.49200
 21
84.19000
  0
LINE
  8
Gravur
 62
   255
 39
0.400
  6
CONTINUOUS
 10
26.49200
 20
84.19000
 30
 0
 11
26.48700
 21
84.27600
  0
LINE
  8
Gravur
 62
   255
 39
0.400
  6
CONTINUOUS
 10
26.48700
 20
84.27600
 30
 0
 11
26.47300
 21
84.35900
  0
LINE
  8
Gravur
 62
   255
 39
0.400
  6
CONTINUOUS
 10
26.47300
 20
84.35900
 30
 0
 11
26.45000
 21
84.44000
  0
LINE
  8
Gravur
 62
   255
 39
0.400
  6
CONTINUOUS
 10
26.45000
 20
84.44000
 30
 0
 11
26.41700
 21
84.51500
  0
LINE
  8
Gravur
 62
   255
 39
0.400
  6
CONTINUOUS
 10
26.41700
 20
84.51500
 30
 0
 11
26.37500
 21
84.58400
  0
LINE
  8
Gravur
 62
   255
 39
0.400
  6
CONTINUOUS
 10
26.37500
 20
84.58400
 30
 0
 11
26.32700
 21
84.64400
  0
LINE
  8
Gravur
 62
   255
 39
0.400
  6
CONTINUOUS
 10
26.32700
 20
84.64400
 30
 0
 11
26.27200
 21
84.69600
  0
LINE
  8
Gravur
 62
   255
 39
0.400
  6
CONTINUOUS
 10
26.27200
 20
84.69600
 30
 0
 11
26.21200
 21
84.73700
  0
LINE
  8
Gravur
 62
   255
 39
0.400
  6
CONTINUOUS
 10
26.21200
 20
84.73700
 30
 0
 11
26.14700
 21
84.76600
  0
LINE
  8
Gravur
 62
   255
 39
0.400
  6
CONTINUOUS
 10
26.14700
 20
84.76600
 30
 0
 11
26.08100
 21
84.78400
  0
LINE
  8
Gravur
 62
   255
 39
0.400
  6
CONTINUOUS
 10
26.08100
 20
84.78400
 30
 0
 11
26.01200
 21
84.79000
  0
LINE
  8
Gravur
 62
   255
 39
0.400
  6
CONTINUOUS
 10
26.01200
 20
84.79000
 30
 0
 11
26.01200
 21
84.79000
  0
LINE
  8
Gravur
 62
   255
 39
0.400
  6
CONTINUOUS
 10
26.01200
 20
84.79000
 30
 0
 11
25.94100
 21
84.79700
  0
LINE
  8
Gravur
 62
   255
 39
0.400
  6
CONTINUOUS
 10
25.94100
 20
84.79700
 30
 0
 11
25.87000
 21
84.81700
  0
LINE
  8
Gravur
 62
   255
 39
0.400
  6
CONTINUOUS
 10
25.87000
 20
84.81700
 30
 0
 11
25.80400
 21
84.84900
  0
LINE
  8
Gravur
 62
   255
 39
0.400
  6
CONTINUOUS
 10
25.80400
 20
84.84900
 30
 0
 11
25.74200
 21
84.89400
  0
LINE
  8
Gravur
 62
   255
 39
0.400
  6
CONTINUOUS
 10
25.74200
 20
84.89400
 30
 0
 11
25.68600
 21
84.95000
  0
LINE
  8
Gravur
 62
   255
 39
0.400
  6
CONTINUOUS
 10
25.68600
 20
84.95000
 30
 0
 11
25.63700
 21
85.01600
  0
LINE
  8
Gravur
 62
   255
 39
0.400
  6
CONTINUOUS
 10
25.63700
 20
85.01600
 30
 0
 11
25.59600
 21
85.09000
  0
LINE
  8
Gravur
 62
   255
 39
0.400
  6
CONTINUOUS
 10
25.59600
 20
85.09000
 30
 0
 11
25.56500
 21
85.17100
  0
LINE
  8
Gravur
 62
   255
 39
0.400
  6
CONTINUOUS
 10
25.56500
 20
85.17100
 30
 0
 11
25.54400
 21
85.25600
  0
LINE
  8
Gravur
 62
   255
 39
0.400
  6
CONTINUOUS
 10
25.54400
 20
85.25600
 30
 0
 11
25.53400
 21
85.34500
  0
LINE
  8
Gravur
 62
   255
 39
0.400
  6
CONTINUOUS
 10
25.53400
 20
85.34500
 30
 0
 11
25.53400
 21
85.43500
  0
LINE
  8
Gravur
 62
   255
 39
0.400
  6
CONTINUOUS
 10
25.53400
 20
85.43500
 30
 0
 11
25.54400
 21
85.52400
  0
LINE
  8
Gravur
 62
   255
 39
0.400
  6
CONTINUOUS
 10
25.54400
 20
85.52400
 30
 0
 11
25.56500
 21
85.60900
  0
LINE
  8
Gravur
 62
   255
 39
0.400
  6
CONTINUOUS
 10
25.56500
 20
85.60900
 30
 0
 11
25.59600
 21
85.69000
  0
LINE
  8
Gravur
 62
   255
 39
0.400
  6
CONTINUOUS
 10
25.59600
 20
85.69000
 30
 0
 11
25.63700
 21
85.76400
  0
LINE
  8
Gravur
 62
   255
 39
0.400
  6
CONTINUOUS
 10
25.63700
 20
85.76400
 30
 0
 11
25.68600
 21
85.83000
  0
LINE
  8
Gravur
 62
   255
 39
0.400
  6
CONTINUOUS
 10
25.68600
 20
85.83000
 30
 0
 11
25.74200
 21
85.88600
  0
LINE
  8
Gravur
 62
   255
 39
0.400
  6
CONTINUOUS
 10
25.74200
 20
85.88600
 30
 0
 11
25.80400
 21
85.93100
  0
LINE
  8
Gravur
 62
   255
 39
0.400
  6
CONTINUOUS
 10
25.80400
 20
85.93100
 30
 0
 11
25.87000
 21
85.96300
  0
LINE
  8
Gravur
 62
   255
 39
0.400
  6
CONTINUOUS
 10
25.87000
 20
85.96300
 30
 0
 11
25.94100
 21
85.98300
  0
LINE
  8
Gravur
 62
   255
 39
0.400
  6
CONTINUOUS
 10
25.94100
 20
85.98300
 30
 0
 11
26.01200
 21
85.99000
  0
LINE
  8
Gravur
 62
   255
 39
0.400
  6
CONTINUOUS
 10
26.01200
 20
85.99000
 30
 0
 11
26.01200
 21
85.99000
  0
LINE
  8
Gravur
 62
   255
 39
0.400
  6
CONTINUOUS
 10
26.01200
 20
85.99000
 30
 0
 11
26.08200
 21
85.98400
  0
LINE
  8
Gravur
 62
   255
 39
0.400
  6
CONTINUOUS
 10
26.08200
 20
85.98400
 30
 0
 11
26.15000
 21
85.96500
  0
LINE
  8
Gravur
 62
   255
 39
0.400
  6
CONTINUOUS
 10
26.15000
 20
85.96500
 30
 0
 11
26.21600
 21
85.93400
  0
LINE
  8
Gravur
 62
   255
 39
0.400
  6
CONTINUOUS
 10
26.21600
 20
85.93400
 30
 0
 11
26.27800
 21
85.89100
  0
LINE
  8
Gravur
 62
   255
 39
0.400
  6
CONTINUOUS
 10
26.27800
 20
85.89100
 30
 0
 11
26.33300
 21
85.83800
  0
LINE
  8
Gravur
 62
   255
 39
0.400
  6
CONTINUOUS
 10
26.33300
 20
85.83800
 30
 0
 11
26.38200
 21
85.77500
  0
LINE
  8
Gravur
 62
   255
 39
0.400
  6
CONTINUOUS
 10
26.38200
 20
85.77500
 30
 0
 11
26.42200
 21
85.70400
  0
LINE
  8
Gravur
 62
   255
 39
0.400
  6
CONTINUOUS
 10
26.42200
 20
85.70400
 30
 0
 11
26.45400
 21
85.62600
  0
LINE
  8
Gravur
 62
   255
 39
0.400
  6
CONTINUOUS
 10
26.45400
 20
85.62600
 30
 0
 11
26.47700
 21
85.54300
  0
LINE
  8
Gravur
 62
   255
 39
0.400
  6
CONTINUOUS
 10
26.47700
 20
85.54300
 30
 0
 11
26.49000
 21
85.45600
  0
LINE
  8
Gravur
 62
   255
 39
0.400
  6
CONTINUOUS
 10
26.49000
 20
85.45600
 30
 0
 11
26.49200
 21
85.39000
  0
LINE
  8
Gravur
 62
   255
 39
0.400
  6
CONTINUOUS
 10
8.72600
 20
32.98000
 30
 0
 11
8.73100
 21
32.90000
  0
LINE
  8
Gravur
 62
   255
 39
0.400
  6
CONTINUOUS
 10
8.73100
 20
32.90000
 30
 0
 11
8.74500
 21
32.82100
  0
LINE
  8
Gravur
 62
   255
 39
0.400
  6
CONTINUOUS
 10
8.74500
 20
32.82100
 30
 0
 11
8.76800
 21
32.74600
  0
LINE
  8
Gravur
 62
   255
 39
0.400
  6
CONTINUOUS
 10
8.76800
 20
32.74600
 30
 0
 11
8.80100
 21
32.67600
  0
LINE
  8
Gravur
 62
   255
 39
0.400
  6
CONTINUOUS
 10
8.80100
 20
32.67600
 30
 0
 11
8.84100
 21
32.61300
  0
LINE
  8
Gravur
 62
   255
 39
0.400
  6
CONTINUOUS
 10
8.84100
 20
32.61300
 30
 0
 11
8.88800
 21
32.55800
  0
LINE
  8
Gravur
 62
   255
 39
0.400
  6
CONTINUOUS
 10
8.88800
 20
32.55800
 30
 0
 11
8.94200
 21
32.51200
  0
LINE
  8
Gravur
 62
   255
 39
0.400
  6
CONTINUOUS
 10
8.94200
 20
32.51200
 30
 0
 11
9.00000
 21
32.47700
  0
LINE
  8
Gravur
 62
   255
 39
0.400
  6
CONTINUOUS
 10
9.00000
 20
32.47700
 30
 0
 11
9.06200
 21
32.45400
  0
LINE
  8
Gravur
 62
   255
 39
0.400
  6
CONTINUOUS
 10
9.06200
 20
32.45400
 30
 0
 11
9.12600
 21
32.44200
  0
LINE
  8
Gravur
 62
   255
 39
0.400
  6
CONTINUOUS
 10
9.12600
 20
32.44200
 30
 0
 11
9.19000
 21
32.44200
  0
LINE
  8
Gravur
 62
   255
 39
0.400
  6
CONTINUOUS
 10
9.19000
 20
32.44200
 30
 0
 11
9.25400
 21
32.45400
  0
LINE
  8
Gravur
 62
   255
 39
0.400
  6
CONTINUOUS
 10
9.25400
 20
32.45400
 30
 0
 11
9.31600
 21
32.47700
  0
LINE
  8
Gravur
 62
   255
 39
0.400
  6
CONTINUOUS
 10
9.31600
 20
32.47700
 30
 0
 11
9.37400
 21
32.51200
  0
LINE
  8
Gravur
 62
   255
 39
0.400
  6
CONTINUOUS
 10
9.37400
 20
32.51200
 30
 0
 11
9.42800
 21
32.55800
  0
LINE
  8
Gravur
 62
   255
 39
0.400
  6
CONTINUOUS
 10
9.42800
 20
32.55800
 30
 0
 11
9.47500
 21
32.61300
  0
LINE
  8
Gravur
 62
   255
 39
0.400
  6
CONTINUOUS
 10
9.47500
 20
32.61300
 30
 0
 11
9.51500
 21
32.67600
  0
LINE
  8
Gravur
 62
   255
 39
0.400
  6
CONTINUOUS
 10
9.51500
 20
32.67600
 30
 0
 11
9.54800
 21
32.74600
  0
LINE
  8
Gravur
 62
   255
 39
0.400
  6
CONTINUOUS
 10
9.54800
 20
32.74600
 30
 0
 11
9.57100
 21
32.82100
  0
LINE
  8
Gravur
 62
   255
 39
0.400
  6
CONTINUOUS
 10
9.57100
 20
32.82100
 30
 0
 11
9.58500
 21
32.90000
  0
LINE
  8
Gravur
 62
   255
 39
0.400
  6
CONTINUOUS
 10
9.58500
 20
32.90000
 30
 0
 11
9.59000
 21
32.98000
  0
LINE
  8
Gravur
 62
   255
 39
0.400
  6
CONTINUOUS
 10
9.59000
 20
32.98000
 30
 0
 11
9.59000
 21
32.98000
  0
LINE
  8
Gravur
 62
   255
 39
0.400
  6
CONTINUOUS
 10
9.59000
 20
32.98000
 30
 0
 11
9.59000
 21
34.30000
  0
LINE
  8
Gravur
 62
   255
 39
0.400
  6
CONTINUOUS
 10
9.59000
 20
34.30000
 30
 0
 11
9.58500
 21
34.38000
  0
LINE
  8
Gravur
 62
   255
 39
0.400
  6
CONTINUOUS
 10
9.58500
 20
34.38000
 30
 0
 11
9.57100
 21
34.45900
  0
LINE
  8
Gravur
 62
   255
 39
0.400
  6
CONTINUOUS
 10
9.57100
 20
34.45900
 30
 0
 11
9.54800
 21
34.53400
  0
LINE
  8
Gravur
 62
   255
 39
0.400
  6
CONTINUOUS
 10
9.54800
 20
34.53400
 30
 0
 11
9.51500
 21
34.60400
  0
LINE
  8
Gravur
 62
   255
 39
0.400
  6
CONTINUOUS
 10
9.51500
 20
34.60400
 30
 0
 11
9.47500
 21
34.66700
  0
LINE
  8
Gravur
 62
   255
 39
0.400
  6
CONTINUOUS
 10
9.47500
 20
34.66700
 30
 0
 11
9.42800
 21
34.72200
  0
LINE
  8
Gravur
 62
   255
 39
0.400
  6
CONTINUOUS
 10
9.42800
 20
34.72200
 30
 0
 11
9.37400
 21
34.76800
  0
LINE
  8
Gravur
 62
   255
 39
0.400
  6
CONTINUOUS
 10
9.37400
 20
34.76800
 30
 0
 11
9.31600
 21
34.80300
  0
LINE
  8
Gravur
 62
   255
 39
0.400
  6
CONTINUOUS
 10
9.31600
 20
34.80300
 30
 0
 11
9.25400
 21
34.82600
  0
LINE
  8
Gravur
 62
   255
 39
0.400
  6
CONTINUOUS
 10
9.25400
 20
34.82600
 30
 0
 11
9.19000
 21
34.83800
  0
LINE
  8
Gravur
 62
   255
 39
0.400
  6
CONTINUOUS
 10
9.19000
 20
34.83800
 30
 0
 11
9.12600
 21
34.83800
  0
LINE
  8
Gravur
 62
   255
 39
0.400
  6
CONTINUOUS
 10
9.12600
 20
34.83800
 30
 0
 11
9.06200
 21
34.82600
  0
LINE
  8
Gravur
 62
   255
 39
0.400
  6
CONTINUOUS
 10
9.06200
 20
34.82600
 30
 0
 11
9.00000
 21
34.80300
  0
LINE
  8
Gravur
 62
   255
 39
0.400
  6
CONTINUOUS
 10
9.00000
 20
34.80300
 30
 0
 11
8.94200
 21
34.76800
  0
LINE
  8
Gravur
 62
   255
 39
0.400
  6
CONTINUOUS
 10
8.94200
 20
34.76800
 30
 0
 11
8.88800
 21
34.72200
  0
LINE
  8
Gravur
 62
   255
 39
0.400
  6
CONTINUOUS
 10
8.88800
 20
34.72200
 30
 0
 11
8.84100
 21
34.66700
  0
LINE
  8
Gravur
 62
   255
 39
0.400
  6
CONTINUOUS
 10
8.84100
 20
34.66700
 30
 0
 11
8.80100
 21
34.60400
  0
LINE
  8
Gravur
 62
   255
 39
0.400
  6
CONTINUOUS
 10
8.80100
 20
34.60400
 30
 0
 11
8.76800
 21
34.53400
  0
LINE
  8
Gravur
 62
   255
 39
0.400
  6
CONTINUOUS
 10
8.76800
 20
34.53400
 30
 0
 11
8.74500
 21
34.45900
  0
LINE
  8
Gravur
 62
   255
 39
0.400
  6
CONTINUOUS
 10
8.74500
 20
34.45900
 30
 0
 11
8.73100
 21
34.38000
  0
LINE
  8
Gravur
 62
   255
 39
0.400
  6
CONTINUOUS
 10
8.73100
 20
34.38000
 30
 0
 11
8.72600
 21
34.30000
  0
LINE
  8
Gravur
 62
   255
 39
0.400
  6
CONTINUOUS
 10
8.72600
 20
34.30000
 30
 0
 11
8.72600
 21
34.30000
  0
LINE
  8
Gravur
 62
   255
 39
0.400
  6
CONTINUOUS
 10
8.72600
 20
34.30000
 30
 0
 11
8.72600
 21
32.98000
  0
LINE
  8
Gravur
 62
   255
 39
0.400
  6
CONTINUOUS
 10
10.13400
 20
34.84000
 30
 0
 11
10.13400
 21
32.98000
  0
LINE
  8
Gravur
 62
   255
 39
0.400
  6
CONTINUOUS
 10
10.13400
 20
32.98000
 30
 0
 11
10.13900
 21
32.90000
  0
LINE
  8
Gravur
 62
   255
 39
0.400
  6
CONTINUOUS
 10
10.13900
 20
32.90000
 30
 0
 11
10.15300
 21
32.82100
  0
LINE
  8
Gravur
 62
   255
 39
0.400
  6
CONTINUOUS
 10
10.15300
 20
32.82100
 30
 0
 11
10.17600
 21
32.74600
  0
LINE
  8
Gravur
 62
   255
 39
0.400
  6
CONTINUOUS
 10
10.17600
 20
32.74600
 30
 0
 11
10.20900
 21
32.67600
  0
LINE
  8
Gravur
 62
   255
 39
0.400
  6
CONTINUOUS
 10
10.20900
 20
32.67600
 30
 0
 11
10.24900
 21
32.61300
  0
LINE
  8
Gravur
 62
   255
 39
0.400
  6
CONTINUOUS
 10
10.24900
 20
32.61300
 30
 0
 11
10.29600
 21
32.55800
  0
LINE
  8
Gravur
 62
   255
 39
0.400
  6
CONTINUOUS
 10
10.29600
 20
32.55800
 30
 0
 11
10.35000
 21
32.51200
  0
LINE
  8
Gravur
 62
   255
 39
0.400
  6
CONTINUOUS
 10
10.35000
 20
32.51200
 30
 0
 11
10.40800
 21
32.47700
  0
LINE
  8
Gravur
 62
   255
 39
0.400
  6
CONTINUOUS
 10
10.40800
 20
32.47700
 30
 0
 11
10.47000
 21
32.45400
  0
LINE
  8
Gravur
 62
   255
 39
0.400
  6
CONTINUOUS
 10
10.47000
 20
32.45400
 30
 0
 11
10.53400
 21
32.44200
  0
LINE
  8
Gravur
 62
   255
 39
0.400
  6
CONTINUOUS
 10
10.53400
 20
32.44200
 30
 0
 11
10.59800
 21
32.44200
  0
LINE
  8
Gravur
 62
   255
 39
0.400
  6
CONTINUOUS
 10
10.59800
 20
32.44200
 30
 0
 11
10.66200
 21
32.45400
  0
LINE
  8
Gravur
 62
   255
 39
0.400
  6
CONTINUOUS
 10
10.66200
 20
32.45400
 30
 0
 11
10.72400
 21
32.47700
  0
LINE
  8
Gravur
 62
   255
 39
0.400
  6
CONTINUOUS
 10
10.72400
 20
32.47700
 30
 0
 11
10.78200
 21
32.51200
  0
LINE
  8
Gravur
 62
   255
 39
0.400
  6
CONTINUOUS
 10
10.78200
 20
32.51200
 30
 0
 11
10.83600
 21
32.55800
  0
LINE
  8
Gravur
 62
   255
 39
0.400
  6
CONTINUOUS
 10
10.83600
 20
32.55800
 30
 0
 11
10.88300
 21
32.61300
  0
LINE
  8
Gravur
 62
   255
 39
0.400
  6
CONTINUOUS
 10
10.88300
 20
32.61300
 30
 0
 11
10.92300
 21
32.67600
  0
LINE
  8
Gravur
 62
   255
 39
0.400
  6
CONTINUOUS
 10
10.92300
 20
32.67600
 30
 0
 11
10.95600
 21
32.74600
  0
LINE
  8
Gravur
 62
   255
 39
0.400
  6
CONTINUOUS
 10
10.95600
 20
32.74600
 30
 0
 11
10.97900
 21
32.82100
  0
LINE
  8
Gravur
 62
   255
 39
0.400
  6
CONTINUOUS
 10
10.97900
 20
32.82100
 30
 0
 11
10.99300
 21
32.90000
  0
LINE
  8
Gravur
 62
   255
 39
0.400
  6
CONTINUOUS
 10
10.99300
 20
32.90000
 30
 0
 11
10.99800
 21
32.98000
  0
LINE
  8
Gravur
 62
   255
 39
0.400
  6
CONTINUOUS
 10
10.99800
 20
32.98000
 30
 0
 11
10.99800
 21
32.98000
  0
LINE
  8
Gravur
 62
   255
 39
0.400
  6
CONTINUOUS
 10
10.99800
 20
32.98000
 30
 0
 11
10.99800
 21
34.84000
  0
LINE
  8
Gravur
 62
   255
 39
0.400
  6
CONTINUOUS
 10
11.54200
 20
34.84000
 30
 0
 11
12.40600
 21
34.84000
  0
LINE
  8
Gravur
 62
   255
 39
0.400
  6
CONTINUOUS
 10
12.40600
 20
34.84000
 30
 0
 11
11.97400
 21
34.84000
  0
LINE
  8
Gravur
 62
   255
 39
0.400
  6
CONTINUOUS
 10
11.97400
 20
34.84000
 30
 0
 11
11.97400
 21
32.44000
  0
LINE
  8
Gravur
 62
   255
 39
0.400
  6
CONTINUOUS
 10
14.47000
 20
34.84000
 30
 0
 11
14.47000
 21
32.44000
  0
LINE
  8
Gravur
 62
   255
 39
0.400
  6
CONTINUOUS
 10
14.47000
 20
32.44000
 30
 0
 11
15.09400
 21
32.44000
  0
LINE
  8
Gravur
 62
   255
 39
0.400
  6
CONTINUOUS
 10
11.20600
 20
56.77000
 30
 0
 11
11.20600
 21
54.37000
  0
LINE
  8
Gravur
 62
   255
 39
0.400
  6
CONTINUOUS
 10
11.75000
 20
54.37000
 30
 0
 11
11.75000
 21
56.77000
  0
LINE
  8
Gravur
 62
   255
 39
0.400
  6
CONTINUOUS
 10
11.75000
 20
56.77000
 30
 0
 11
12.61400
 21
54.37000
  0
LINE
  8
Gravur
 62
   255
 39
0.400
  6
CONTINUOUS
 10
12.61400
 20
54.37000
 30
 0
 11
12.61400
 21
56.77000
  0
LINE
  8
Gravur
 62
   255
 39
0.200
  6
CONTINUOUS
 10
27.94100
 20
103.40800
 30
 0
 11
27.94100
 21
79.71600
  0
LINE
  8
Gravur
 62
   255
 39
0.200
  6
CONTINUOUS
 10
27.94100
 20
79.71600
 30
 0
 11
27.94100
 21
79.71600
  0
LINE
  8
Gravur
 62
   255
 39
0.200
  6
CONTINUOUS
 10
27.94100
 20
79.71600
 30
 0
 11
16.46100
 21
79.71600
  0
LINE
  8
Gravur
 62
   255
 39
0.200
  6
CONTINUOUS
 10
16.46100
 20
79.71600
 30
 0
 11
16.46100
 21
79.71600
  0
LINE
  8
Gravur
 62
   255
 39
0.200
  6
CONTINUOUS
 10
16.46100
 20
79.71600
 30
 0
 11
16.46100
 21
103.40800
  0
LINE
  8
Gravur
 62
   255
 39
0.200
  6
CONTINUOUS
 10
16.46100
 20
103.40800
 30
 0
 11
16.46100
 21
103.40800
  0
LINE
  8
Gravur
 62
   255
 39
0.200
  6
CONTINUOUS
 10
16.46100
 20
103.40800
 30
 0
 11
27.94100
 21
103.40800
  0
LINE
  8
Gravur
 62
   255
 39
0.200
  6
CONTINUOUS
 10
27.94100
 20
103.40800
 30
 0
 11
27.94100
 21
103.40800
  0
LINE
  8
Gravur
 62
   255
 39
0.400
  6
CONTINUOUS
 10
20.78000
 20
199.10500
 30
 0
 11
23.28000
 21
199.10500
  0
LINE
  8
Gravur
 62
   255
 39
0.400
  6
CONTINUOUS
 10
22.03000
 20
200.35500
 30
 0
 11
22.03000
 21
197.85500
  0
LINE
  8
Gravur
 62
   255
 39
0.400
  6
CONTINUOUS
 10
16.28000
 20
189.14500
 30
 0
 11
19.27900
 21
194.34100
  0
LINE
  8
Gravur
 62
   255
 39
0.400
  6
CONTINUOUS
 10
19.27900
 20
194.34100
 30
 0
 11
19.28000
 21
194.34100
  0
LINE
  8
Gravur
 62
   255
 39
0.400
  6
CONTINUOUS
 10
27.78000
 20
189.14500
 30
 0
 11
24.78000
 21
194.34100
  0
LINE
  8
Gravur
 62
   255
 39
0.400
  6
CONTINUOUS
 10
24.78000
 20
194.34100
 30
 0
 11
24.78000
 21
194.34100
  0
LINE
  8
Gravur
 62
   255
 39
0.400
  6
CONTINUOUS
 10
26.79300
 20
196.35400
 30
 0
 11
26.79300
 21
196.35400
  0
LINE
  8
Gravur
 62
   255
 39
0.400
  6
CONTINUOUS
 10
26.79300
 20
196.35400
 30
 0
 11
31.98900
 21
193.35400
  0
LINE
  8
Gravur
 62
   255
 39
0.400
  6
CONTINUOUS
 10
33.53000
 20
199.10500
 30
 0
 11
27.53000
 21
199.10500
  0
LINE
  8
Gravur
 62
   255
 39
0.400
  6
CONTINUOUS
 10
27.53000
 20
199.10500
 30
 0
 11
27.53000
 21
199.10500
  0
LINE
  8
Gravur
 62
   255
 39
0.400
  6
CONTINUOUS
 10
26.79300
 20
201.85500
 30
 0
 11
26.79300
 21
201.85500
  0
LINE
  8
Gravur
 62
   255
 39
0.400
  6
CONTINUOUS
 10
26.79300
 20
201.85500
 30
 0
 11
31.98900
 21
204.85500
  0
LINE
  8
Gravur
 62
   255
 39
0.400
  6
CONTINUOUS
 10
27.77900
 20
209.06400
 30
 0
 11
24.78000
 21
203.86800
  0
LINE
  8
Gravur
 62
   255
 39
0.400
  6
CONTINUOUS
 10
24.78000
 20
203.86800
 30
 0
 11
24.77900
 21
203.86800
  0
LINE
  8
Gravur
 62
   255
 39
0.400
  6
CONTINUOUS
 10
22.03000
 20
204.60500
 30
 0
 11
22.03000
 21
204.60500
  0
LINE
  8
Gravur
 62
   255
 39
0.400
  6
CONTINUOUS
 10
22.03000
 20
204.60500
 30
 0
 11
22.03000
 21
210.60500
  0
LINE
  8
Gravur
 62
   255
 39
0.400
  6
CONTINUOUS
 10
16.28000
 20
209.06400
 30
 0
 11
19.28000
 21
203.86800
  0
LINE
  8
Gravur
 62
   255
 39
0.400
  6
CONTINUOUS
 10
19.28000
 20
203.86800
 30
 0
 11
19.28000
 21
203.86800
  0
LINE
  8
Gravur
 62
   255
 39
0.400
  6
CONTINUOUS
 10
17.26600
 20
201.85400
 30
 0
 11
17.26600
 21
201.85500
  0
LINE
  8
Gravur
 62
   255
 39
0.400
  6
CONTINUOUS
 10
17.26600
 20
201.85500
 30
 0
 11
12.07000
 21
204.85400
  0
LINE
  8
Gravur
 62
   255
 39
0.400
  6
CONTINUOUS
 10
10.53000
 20
199.10500
 30
 0
 11
16.53000
 21
199.10500
  0
LINE
  8
Gravur
 62
   255
 39
0.400
  6
CONTINUOUS
 10
16.53000
 20
199.10500
 30
 0
 11
16.53000
 21
199.10500
  0
LINE
  8
Gravur
 62
   255
 39
0.400
  6
CONTINUOUS
 10
17.26600
 20
196.35500
 30
 0
 11
17.26600
 21
196.35500
  0
LINE
  8
Gravur
 62
   255
 39
0.400
  6
CONTINUOUS
 10
17.26600
 20
196.35500
 30
 0
 11
12.07000
 21
193.35500
  0
LINE
  8
Gravur
 62
   255
 39
0.200
  6
CONTINUOUS
 10
9.64300
 20
206.54900
 30
 0
 11
9.65200
 21
206.62000
  0
LINE
  8
Gravur
 62
   255
 39
0.200
  6
CONTINUOUS
 10
9.65200
 20
206.62000
 30
 0
 11
9.67100
 21
206.68900
  0
LINE
  8
Gravur
 62
   255
 39
0.200
  6
CONTINUOUS
 10
9.67100
 20
206.68900
 30
 0
 11
9.69800
 21
206.75400
  0
LINE
  8
Gravur
 62
   255
 39
0.200
  6
CONTINUOUS
 10
9.69800
 20
206.75400
 30
 0
 11
9.73300
 21
206.81400
  0
LINE
  8
Gravur
 62
   255
 39
0.200
  6
CONTINUOUS
 10
9.73300
 20
206.81400
 30
 0
 11
9.77600
 21
206.86700
  0
LINE
  8
Gravur
 62
   255
 39
0.200
  6
CONTINUOUS
 10
9.77600
 20
206.86700
 30
 0
 11
9.82500
 21
206.91300
  0
LINE
  8
Gravur
 62
   255
 39
0.200
  6
CONTINUOUS
 10
9.82500
 20
206.91300
 30
 0
 11
9.88000
 21
206.95100
  0
LINE
  8
Gravur
 62
   255
 39
0.200
  6
CONTINUOUS
 10
9.88000
 20
206.95100
 30
 0
 11
9.94000
 21
206.97900
  0
LINE
  8
Gravur
 62
   255
 39
0.200
  6
CONTINUOUS
 10
9.94000
 20
206.97900
 30
 0
 11
10.00200
 21
206.99800
  0
LINE
  8
Gravur
 62
   255
 39
0.200
  6
CONTINUOUS
 10
10.00200
 20
206.99800
 30
 0
 11
10.06600
 21
207.00600
  0
LINE
  8
Gravur
 62
   255
 39
0.200
  6
CONTINUOUS
 10
10.06600
 20
207.00600
 30
 0
 11
10.13100
 21
207.00400
  0
LINE
  8
Gravur
 62
   255
 39
0.200
  6
CONTINUOUS
 10
10.13100
 20
207.00400
 30
 0
 11
10.19500
 21
206.99100
  0
LINE
  8
Gravur
 62
   255
 39
0.200
  6
CONTINUOUS
 10
10.19500
 20
206.99100
 30
 0
 11
10.20100
 21
206.98900
  0
LINE
  8
Gravur
 62
   255
 39
0.200
  6
CONTINUOUS
 10
10.20100
 20
206.98900
 30
 0
 11
10.26800
 21
206.96300
  0
LINE
  8
Gravur
 62
   255
 39
0.200
  6
CONTINUOUS
 10
10.26800
 20
206.96300
 30
 0
 11
10.33100
 21
206.92500
  0
LINE
  8
Gravur
 62
   255
 39
0.200
  6
CONTINUOUS
 10
10.33100
 20
206.92500
 30
 0
 11
10.38900
 21
206.87800
  0
LINE
  8
Gravur
 62
   255
 39
0.200
  6
CONTINUOUS
 10
10.38900
 20
206.87800
 30
 0
 11
10.43900
 21
206.82200
  0
LINE
  8
Gravur
 62
   255
 39
0.200
  6
CONTINUOUS
 10
10.43900
 20
206.82200
 30
 0
 11
10.48200
 21
206.75800
  0
LINE
  8
Gravur
 62
   255
 39
0.200
  6
CONTINUOUS
 10
10.48200
 20
206.75800
 30
 0
 11
10.51500
 21
206.68700
  0
LINE
  8
Gravur
 62
   255
 39
0.200
  6
CONTINUOUS
 10
10.51500
 20
206.68700
 30
 0
 11
10.53800
 21
206.61200
  0
LINE
  8
Gravur
 62
   255
 39
0.200
  6
CONTINUOUS
 10
10.53800
 20
206.61200
 30
 0
 11
10.55100
 21
206.53400
  0
LINE
  8
Gravur
 62
   255
 39
0.200
  6
CONTINUOUS
 10
10.55100
 20
206.53400
 30
 0
 11
10.55400
 21
206.45500
  0
LINE
  8
Gravur
 62
   255
 39
0.200
  6
CONTINUOUS
 10
10.55400
 20
206.45500
 30
 0
 11
10.54600
 21
206.37600
  0
LINE
  8
Gravur
 62
   255
 39
0.200
  6
CONTINUOUS
 10
10.54600
 20
206.37600
 30
 0
 11
10.52700
 21
206.29900
  0
LINE
  8
Gravur
 62
   255
 39
0.200
  6
CONTINUOUS
 10
10.52700
 20
206.29900
 30
 0
 11
10.49800
 21
206.22600
  0
LINE
  8
Gravur
 62
   255
 39
0.200
  6
CONTINUOUS
 10
10.49800
 20
206.22600
 30
 0
 11
10.46000
 21
206.15900
  0
LINE
  8
Gravur
 62
   255
 39
0.200
  6
CONTINUOUS
 10
10.46000
 20
206.15900
 30
 0
 11
10.41300
 21
206.09900
  0
LINE
  8
Gravur
 62
   255
 39
0.200
  6
CONTINUOUS
 10
10.41300
 20
206.09900
 30
 0
 11
10.35800
 21
206.04800
  0
LINE
  8
Gravur
 62
   255
 39
0.200
  6
CONTINUOUS
 10
10.35800
 20
206.04800
 30
 0
 11
10.29800
 21
206.00500
  0
LINE
  8
Gravur
 62
   255
 39
0.200
  6
CONTINUOUS
 10
10.29800
 20
206.00500
 30
 0
 11
10.23200
 21
205.97400
  0
LINE
  8
Gravur
 62
   255
 39
0.200
  6
CONTINUOUS
 10
10.23200
 20
205.97400
 30
 0
 11
10.16300
 21
205.95400
  0
LINE
  8
Gravur
 62
   255
 39
0.200
  6
CONTINUOUS
 10
10.16300
 20
205.95400
 30
 0
 11
10.09200
 21
205.94500
  0
LINE
  8
Gravur
 62
   255
 39
0.200
  6
CONTINUOUS
 10
10.09200
 20
205.94500
 30
 0
 11
10.02100
 21
205.94800
  0
LINE
  8
Gravur
 62
   255
 39
0.200
  6
CONTINUOUS
 10
10.02100
 20
205.94800
 30
 0
 11
10.02100
 21
205.94900
  0
LINE
  8
Gravur
 62
   255
 39
0.200
  6
CONTINUOUS
 10
10.02100
 20
205.94900
 30
 0
 11
10.10900
 21
205.95400
  0
LINE
  8
Gravur
 62
   255
 39
0.200
  6
CONTINUOUS
 10
10.10900
 20
205.95400
 30
 0
 11
10.19600
 21
205.94400
  0
LINE
  8
Gravur
 62
   255
 39
0.200
  6
CONTINUOUS
 10
10.19600
 20
205.94400
 30
 0
 11
10.28200
 21
205.92000
  0
LINE
  8
Gravur
 62
   255
 39
0.200
  6
CONTINUOUS
 10
10.28200
 20
205.92000
 30
 0
 11
10.36400
 21
205.88200
  0
LINE
  8
Gravur
 62
   255
 39
0.200
  6
CONTINUOUS
 10
10.36400
 20
205.88200
 30
 0
 11
10.43800
 21
205.83000
  0
LINE
  8
Gravur
 62
   255
 39
0.200
  6
CONTINUOUS
 10
10.43800
 20
205.83000
 30
 0
 11
10.50600
 21
205.76700
  0
LINE
  8
Gravur
 62
   255
 39
0.200
  6
CONTINUOUS
 10
10.50600
 20
205.76700
 30
 0
 11
10.56400
 21
205.69400
  0
LINE
  8
Gravur
 62
   255
 39
0.200
  6
CONTINUOUS
 10
10.56400
 20
205.69400
 30
 0
 11
10.61200
 21
205.61100
  0
LINE
  8
Gravur
 62
   255
 39
0.200
  6
CONTINUOUS
 10
10.61200
 20
205.61100
 30
 0
 11
10.64800
 21
205.52200
  0
LINE
  8
Gravur
 62
   255
 39
0.200
  6
CONTINUOUS
 10
10.64800
 20
205.52200
 30
 0
 11
10.67200
 21
205.42700
  0
LINE
  8
Gravur
 62
   255
 39
0.200
  6
CONTINUOUS
 10
10.67200
 20
205.42700
 30
 0
 11
10.68200
 21
205.33000
  0
LINE
  8
Gravur
 62
   255
 39
0.200
  6
CONTINUOUS
 10
10.68200
 20
205.33000
 30
 0
 11
10.68100
 21
205.23200
  0
LINE
  8
Gravur
 62
   255
 39
0.200
  6
CONTINUOUS
 10
10.68100
 20
205.23200
 30
 0
 11
10.66400
 21
205.13600
  0
LINE
  8
Gravur
 62
   255
 39
0.200
  6
CONTINUOUS
 10
10.66400
 20
205.13600
 30
 0
 11
10.63600
 21
205.04300
  0
LINE
  8
Gravur
 62
   255
 39
0.200
  6
CONTINUOUS
 10
10.63600
 20
205.04300
 30
 0
 11
10.59600
 21
204.95600
  0
LINE
  8
Gravur
 62
   255
 39
0.200
  6
CONTINUOUS
 10
10.59600
 20
204.95600
 30
 0
 11
10.54400
 21
204.87600
  0
LINE
  8
Gravur
 62
   255
 39
0.200
  6
CONTINUOUS
 10
10.54400
 20
204.87600
 30
 0
 11
10.48300
 21
204.80600
  0
LINE
  8
Gravur
 62
   255
 39
0.200
  6
CONTINUOUS
 10
10.48300
 20
204.80600
 30
 0
 11
10.41200
 21
204.74800
  0
LINE
  8
Gravur
 62
   255
 39
0.200
  6
CONTINUOUS
 10
10.41200
 20
204.74800
 30
 0
 11
10.33400
 21
204.70100
  0
LINE
  8
Gravur
 62
   255
 39
0.200
  6
CONTINUOUS
 10
10.33400
 20
204.70100
 30
 0
 11
10.25500
 21
204.66900
  0
LINE
  8
Gravur
 62
   255
 39
0.200
  6
CONTINUOUS
 10
10.25500
 20
204.66900
 30
 0
 11
10.18100
 21
204.65100
  0
LINE
  8
Gravur
 62
   255
 39
0.200
  6
CONTINUOUS
 10
10.18100
 20
204.65100
 30
 0
 11
10.10500
 21
204.64500
  0
LINE
  8
Gravur
 62
   255
 39
0.200
  6
CONTINUOUS
 10
10.10500
 20
204.64500
 30
 0
 11
10.03000
 21
204.65100
  0
LINE
  8
Gravur
 62
   255
 39
0.200
  6
CONTINUOUS
 10
10.03000
 20
204.65100
 30
 0
 11
9.95600
 21
204.67000
  0
LINE
  8
Gravur
 62
   255
 39
0.200
  6
CONTINUOUS
 10
9.95600
 20
204.67000
 30
 0
 11
9.88500
 21
204.70000
  0
LINE
  8
Gravur
 62
   255
 39
0.200
  6
CONTINUOUS
 10
9.88500
 20
204.70000
 30
 0
 11
9.81900
 21
204.74100
  0
LINE
  8
Gravur
 62
   255
 39
0.200
  6
CONTINUOUS
 10
9.81900
 20
204.74100
 30
 0
 11
9.75900
 21
204.79200
  0
LINE
  8
Gravur
 62
   255
 39
0.200
  6
CONTINUOUS
 10
9.75900
 20
204.79200
 30
 0
 11
9.70700
 21
204.85300
  0
LINE
  8
Gravur
 62
   255
 39
0.200
  6
CONTINUOUS
 10
9.70700
 20
204.85300
 30
 0
 11
9.66300
 21
204.92100
  0
LINE
  8
Gravur
 62
   255
 39
0.200
  6
CONTINUOUS
 10
9.66300
 20
204.92100
 30
 0
 11
9.62700
 21
204.99600
  0
LINE
  8
Gravur
 62
   255
 39
0.200
  6
CONTINUOUS
 10
9.62700
 20
204.99600
 30
 0
 11
9.60300
 21
205.07600
  0
LINE
  8
Gravur
 62
   255
 39
0.200
  6
CONTINUOUS
 10
9.60300
 20
205.07600
 30
 0
 11
9.59000
 21
205.15800
  0
LINE
  8
Gravur
 62
   255
 39
0.200
  6
CONTINUOUS
 10
9.59000
 20
205.15800
 30
 0
 11
9.58900
 21
205.16900
  0
LINE
  8
Gravur
 62
   255
 39
0.400
  6
CONTINUOUS
 10
18.31300
 20
214.75700
 30
 0
 11
18.31300
 21
211.95700
  0
LINE
  8
Gravur
 62
   255
 39
0.400
  6
CONTINUOUS
 10
19.02700
 20
211.95700
 30
 0
 11
19.02700
 21
214.75700
  0
LINE
  8
Gravur
 62
   255
 39
0.400
  6
CONTINUOUS
 10
19.02700
 20
214.75700
 30
 0
 11
20.16100
 21
211.95700
  0
LINE
  8
Gravur
 62
   255
 39
0.400
  6
CONTINUOUS
 10
20.16100
 20
211.95700
 30
 0
 11
20.16100
 21
214.75700
  0
LINE
  8
Gravur
 62
   255
 39
0.400
  6
CONTINUOUS
 10
20.85400
 20
213.35700
 30
 0
 11
21.42100
 21
213.35700
  0
LINE
  8
Gravur
 62
   255
 39
0.400
  6
CONTINUOUS
 10
21.42100
 20
213.35700
 30
 0
 11
21.51400
 21
213.36500
  0
LINE
  8
Gravur
 62
   255
 39
0.400
  6
CONTINUOUS
 10
21.51400
 20
213.36500
 30
 0
 11
21.60600
 21
213.38800
  0
LINE
  8
Gravur
 62
   255
 39
0.400
  6
CONTINUOUS
 10
21.60600
 20
213.38800
 30
 0
 11
21.69400
 21
213.42600
  0
LINE
  8
Gravur
 62
   255
 39
0.400
  6
CONTINUOUS
 10
21.69400
 20
213.42600
 30
 0
 11
21.77500
 21
213.47900
  0
LINE
  8
Gravur
 62
   255
 39
0.400
  6
CONTINUOUS
 10
21.77500
 20
213.47900
 30
 0
 11
21.84900
 21
213.54400
  0
LINE
  8
Gravur
 62
   255
 39
0.400
  6
CONTINUOUS
 10
21.84900
 20
213.54400
 30
 0
 11
21.91300
 21
213.62100
  0
LINE
  8
Gravur
 62
   255
 39
0.400
  6
CONTINUOUS
 10
21.91300
 20
213.62100
 30
 0
 11
21.96600
 21
213.70700
  0
LINE
  8
Gravur
 62
   255
 39
0.400
  6
CONTINUOUS
 10
21.96600
 20
213.70700
 30
 0
 11
22.00700
 21
213.80100
  0
LINE
  8
Gravur
 62
   255
 39
0.400
  6
CONTINUOUS
 10
22.00700
 20
213.80100
 30
 0
 11
22.03500
 21
213.90100
  0
LINE
  8
Gravur
 62
   255
 39
0.400
  6
CONTINUOUS
 10
22.03500
 20
213.90100
 30
 0
 11
22.04900
 21
214.00500
  0
LINE
  8
Gravur
 62
   255
 39
0.400
  6
CONTINUOUS
 10
22.04900
 20
214.00500
 30
 0
 11
22.04900
 21
214.10900
  0
LINE
  8
Gravur
 62
   255
 39
0.400
  6
CONTINUOUS
 10
22.04900
 20
214.10900
 30
 0
 11
22.03500
 21
214.21300
  0
LINE
  8
Gravur
 62
   255
 39
0.400
  6
CONTINUOUS
 10
22.03500
 20
214.21300
 30
 0
 11
22.00700
 21
214.31300
  0
LINE
  8
Gravur
 62
   255
 39
0.400
  6
CONTINUOUS
 10
22.00700
 20
214.31300
 30
 0
 11
21.96600
 21
214.40700
  0
LINE
  8
Gravur
 62
   255
 39
0.400
  6
CONTINUOUS
 10
21.96600
 20
214.40700
 30
 0
 11
21.91300
 21
214.49300
  0
LINE
  8
Gravur
 62
   255
 39
0.400
  6
CONTINUOUS
 10
21.91300
 20
214.49300
 30
 0
 11
21.84900
 21
214.57000
  0
LINE
  8
Gravur
 62
   255
 39
0.400
  6
CONTINUOUS
 10
21.84900
 20
214.57000
 30
 0
 11
21.77500
 21
214.63500
  0
LINE
  8
Gravur
 62
   255
 39
0.400
  6
CONTINUOUS
 10
21.77500
 20
214.63500
 30
 0
 11
21.69400
 21
214.68800
  0
LINE
  8
Gravur
 62
   255
 39
0.400
  6
CONTINUOUS
 10
21.69400
 20
214.68800
 30
 0
 11
21.60600
 21
214.72600
  0
LINE
  8
Gravur
 62
   255
 39
0.400
  6
CONTINUOUS
 10
21.60600
 20
214.72600
 30
 0
 11
21.51400
 21
214.74900
  0
LINE
  8
Gravur
 62
   255
 39
0.400
  6
CONTINUOUS
 10
21.51400
 20
214.74900
 30
 0
 11
21.42100
 21
214.75700
  0
LINE
  8
Gravur
 62
   255
 39
0.400
  6
CONTINUOUS
 10
21.42100
 20
214.75700
 30
 0
 11
21.42100
 21
214.75700
  0
LINE
  8
Gravur
 62
   255
 39
0.400
  6
CONTINUOUS
 10
21.42100
 20
214.75700
 30
 0
 11
20.85400
 21
214.75700
  0
LINE
  8
Gravur
 62
   255
 39
0.400
  6
CONTINUOUS
 10
20.85400
 20
214.75700
 30
 0
 11
20.85400
 21
211.95700
  0
LINE
  8
Gravur
 62
   255
 39
0.400
  6
CONTINUOUS
 10
22.76400
 20
214.75700
 30
 0
 11
22.76400
 21
212.58700
  0
LINE
  8
Gravur
 62
   255
 39
0.400
  6
CONTINUOUS
 10
22.76400
 20
212.58700
 30
 0
 11
22.77100
 21
212.49300
  0
LINE
  8
Gravur
 62
   255
 39
0.400
  6
CONTINUOUS
 10
22.77100
 20
212.49300
 30
 0
 11
22.79000
 21
212.40100
  0
LINE
  8
Gravur
 62
   255
 39
0.400
  6
CONTINUOUS
 10
22.79000
 20
212.40100
 30
 0
 11
22.82000
 21
212.31400
  0
LINE
  8
Gravur
 62
   255
 39
0.400
  6
CONTINUOUS
 10
22.82000
 20
212.31400
 30
 0
 11
22.86300
 21
212.23200
  0
LINE
  8
Gravur
 62
   255
 39
0.400
  6
CONTINUOUS
 10
22.86300
 20
212.23200
 30
 0
 11
22.91600
 21
212.15800
  0
LINE
  8
Gravur
 62
   255
 39
0.400
  6
CONTINUOUS
 10
22.91600
 20
212.15800
 30
 0
 11
22.97800
 21
212.09400
  0
LINE
  8
Gravur
 62
   255
 39
0.400
  6
CONTINUOUS
 10
22.97800
 20
212.09400
 30
 0
 11
23.04800
 21
212.04100
  0
LINE
  8
Gravur
 62
   255
 39
0.400
  6
CONTINUOUS
 10
23.04800
 20
212.04100
 30
 0
 11
23.12400
 21
212.00100
  0
LINE
  8
Gravur
 62
   255
 39
0.400
  6
CONTINUOUS
 10
23.12400
 20
212.00100
 30
 0
 11
23.20500
 21
211.97300
  0
LINE
  8
Gravur
 62
   255
 39
0.400
  6
CONTINUOUS
 10
23.20500
 20
211.97300
 30
 0
 11
23.28900
 21
211.95900
  0
LINE
  8
Gravur
 62
   255
 39
0.400
  6
CONTINUOUS
 10
23.28900
 20
211.95900
 30
 0
 11
23.37400
 21
211.95900
  0
LINE
  8
Gravur
 62
   255
 39
0.400
  6
CONTINUOUS
 10
23.37400
 20
211.95900
 30
 0
 11
23.45700
 21
211.97300
  0
LINE
  8
Gravur
 62
   255
 39
0.400
  6
CONTINUOUS
 10
23.45700
 20
211.97300
 30
 0
 11
23.53800
 21
212.00100
  0
LINE
  8
Gravur
 62
   255
 39
0.400
  6
CONTINUOUS
 10
23.53800
 20
212.00100
 30
 0
 11
23.61500
 21
212.04100
  0
LINE
  8
Gravur
 62
   255
 39
0.400
  6
CONTINUOUS
 10
23.61500
 20
212.04100
 30
 0
 11
23.68500
 21
212.09400
  0
LINE
  8
Gravur
 62
   255
 39
0.400
  6
CONTINUOUS
 10
23.68500
 20
212.09400
 30
 0
 11
23.74700
 21
212.15800
  0
LINE
  8
Gravur
 62
   255
 39
0.400
  6
CONTINUOUS
 10
23.74700
 20
212.15800
 30
 0
 11
23.80000
 21
212.23200
  0
LINE
  8
Gravur
 62
   255
 39
0.400
  6
CONTINUOUS
 10
23.80000
 20
212.23200
 30
 0
 11
23.84300
 21
212.31400
  0
LINE
  8
Gravur
 62
   255
 39
0.400
  6
CONTINUOUS
 10
23.84300
 20
212.31400
 30
 0
 11
23.87300
 21
212.40100
  0
LINE
  8
Gravur
 62
   255
 39
0.400
  6
CONTINUOUS
 10
23.87300
 20
212.40100
 30
 0
 11
23.89200
 21
212.49300
  0
LINE
  8
Gravur
 62
   255
 39
0.400
  6
CONTINUOUS
 10
23.89200
 20
212.49300
 30
 0
 11
23.89800
 21
212.58700
  0
LINE
  8
Gravur
 62
   255
 39
0.400
  6
CONTINUOUS
 10
23.89800
 20
212.58700
 30
 0
 11
23.89800
 21
212.58700
  0
LINE
  8
Gravur
 62
   255
 39
0.400
  6
CONTINUOUS
 10
23.89800
 20
212.58700
 30
 0
 11
23.89800
 21
214.75700
  0
LINE
  8
Gravur
 62
   255
 39
0.400
  6
CONTINUOUS
 10
24.61300
 20
214.75700
 30
 0
 11
25.74700
 21
214.75700
  0
LINE
  8
Gravur
 62
   255
 39
0.400
  6
CONTINUOUS
 10
25.74700
 20
214.75700
 30
 0
 11
25.18000
 21
214.75700
  0
LINE
  8
Gravur
 62
   255
 39
0.400
  6
CONTINUOUS
 10
25.18000
 20
214.75700
 30
 0
 11
25.18000
 21
211.95700
  0
LINE
  8
Gravur
 62
   255
 39
0.200
  6
CONTINUOUS
 10
27.61800
 20
187.82100
 30
 0
 11
28.10400
 21
188.42100
  0
LINE
  8
Gravur
 62
   255
 39
0.200
  6
CONTINUOUS
 10
28.10400
 20
188.42100
 30
 0
 11
28.10400
 21
186.02100
  0
LINE
  8
Gravur
 62
   255
 39
0.200
  6
CONTINUOUS
 10
28.71600
 20
186.56100
 30
 0
 11
28.72100
 21
186.48100
  0
LINE
  8
Gravur
 62
   255
 39
0.200
  6
CONTINUOUS
 10
28.72100
 20
186.48100
 30
 0
 11
28.73800
 21
186.40200
  0
LINE
  8
Gravur
 62
   255
 39
0.200
  6
CONTINUOUS
 10
28.73800
 20
186.40200
 30
 0
 11
28.76400
 21
186.32700
  0
LINE
  8
Gravur
 62
   255
 39
0.200
  6
CONTINUOUS
 10
28.76400
 20
186.32700
 30
 0
 11
28.80100
 21
186.25700
  0
LINE
  8
Gravur
 62
   255
 39
0.200
  6
CONTINUOUS
 10
28.80100
 20
186.25700
 30
 0
 11
28.84600
 21
186.19400
  0
LINE
  8
Gravur
 62
   255
 39
0.200
  6
CONTINUOUS
 10
28.84600
 20
186.19400
 30
 0
 11
28.89900
 21
186.13900
  0
LINE
  8
Gravur
 62
   255
 39
0.200
  6
CONTINUOUS
 10
28.89900
 20
186.13900
 30
 0
 11
28.95900
 21
186.09300
  0
LINE
  8
Gravur
 62
   255
 39
0.200
  6
CONTINUOUS
 10
28.95900
 20
186.09300
 30
 0
 11
29.02500
 21
186.05800
  0
LINE
  8
Gravur
 62
   255
 39
0.200
  6
CONTINUOUS
 10
29.02500
 20
186.05800
 30
 0
 11
29.09400
 21
186.03500
  0
LINE
  8
Gravur
 62
   255
 39
0.200
  6
CONTINUOUS
 10
29.09400
 20
186.03500
 30
 0
 11
29.16600
 21
186.02300
  0
LINE
  8
Gravur
 62
   255
 39
0.200
  6
CONTINUOUS
 10
29.16600
 20
186.02300
 30
 0
 11
29.23800
 21
186.02300
  0
LINE
  8
Gravur
 62
   255
 39
0.200
  6
CONTINUOUS
 10
29.23800
 20
186.02300
 30
 0
 11
29.31000
 21
186.03500
  0
LINE
  8
Gravur
 62
   255
 39
0.200
  6
CONTINUOUS
 10
29.31000
 20
186.03500
 30
 0
 11
29.37900
 21
186.05800
  0
LINE
  8
Gravur
 62
   255
 39
0.200
  6
CONTINUOUS
 10
29.37900
 20
186.05800
 30
 0
 11
29.44500
 21
186.09300
  0
LINE
  8
Gravur
 62
   255
 39
0.200
  6
CONTINUOUS
 10
29.44500
 20
186.09300
 30
 0
 11
29.50500
 21
186.13900
  0
LINE
  8
Gravur
 62
   255
 39
0.200
  6
CONTINUOUS
 10
29.50500
 20
186.13900
 30
 0
 11
29.55800
 21
186.19400
  0
LINE
  8
Gravur
 62
   255
 39
0.200
  6
CONTINUOUS
 10
29.55800
 20
186.19400
 30
 0
 11
29.60300
 21
186.25700
  0
LINE
  8
Gravur
 62
   255
 39
0.200
  6
CONTINUOUS
 10
29.60300
 20
186.25700
 30
 0
 11
29.64000
 21
186.32700
  0
LINE
  8
Gravur
 62
   255
 39
0.200
  6
CONTINUOUS
 10
29.64000
 20
186.32700
 30
 0
 11
29.66600
 21
186.40200
  0
LINE
  8
Gravur
 62
   255
 39
0.200
  6
CONTINUOUS
 10
29.66600
 20
186.40200
 30
 0
 11
29.68300
 21
186.48100
  0
LINE
  8
Gravur
 62
   255
 39
0.200
  6
CONTINUOUS
 10
29.68300
 20
186.48100
 30
 0
 11
29.68800
 21
186.56100
  0
LINE
  8
Gravur
 62
   255
 39
0.200
  6
CONTINUOUS
 10
29.68800
 20
186.56100
 30
 0
 11
29.68800
 21
186.56100
  0
LINE
  8
Gravur
 62
   255
 39
0.200
  6
CONTINUOUS
 10
29.68800
 20
186.56100
 30
 0
 11
29.68800
 21
187.88100
  0
LINE
  8
Gravur
 62
   255
 39
0.200
  6
CONTINUOUS
 10
29.68800
 20
187.88100
 30
 0
 11
29.68300
 21
187.96100
  0
LINE
  8
Gravur
 62
   255
 39
0.200
  6
CONTINUOUS
 10
29.68300
 20
187.96100
 30
 0
 11
29.66600
 21
188.04000
  0
LINE
  8
Gravur
 62
   255
 39
0.200
  6
CONTINUOUS
 10
29.66600
 20
188.04000
 30
 0
 11
29.64000
 21
188.11500
  0
LINE
  8
Gravur
 62
   255
 39
0.200
  6
CONTINUOUS
 10
29.64000
 20
188.11500
 30
 0
 11
29.60300
 21
188.18500
  0
LINE
  8
Gravur
 62
   255
 39
0.200
  6
CONTINUOUS
 10
29.60300
 20
188.18500
 30
 0
 11
29.55800
 21
188.24800
  0
LINE
  8
Gravur
 62
   255
 39
0.200
  6
CONTINUOUS
 10
29.55800
 20
188.24800
 30
 0
 11
29.50500
 21
188.30300
  0
LINE
  8
Gravur
 62
   255
 39
0.200
  6
CONTINUOUS
 10
29.50500
 20
188.30300
 30
 0
 11
29.44500
 21
188.34900
  0
LINE
  8
Gravur
 62
   255
 39
0.200
  6
CONTINUOUS
 10
29.44500
 20
188.34900
 30
 0
 11
29.37900
 21
188.38400
  0
LINE
  8
Gravur
 62
   255
 39
0.200
  6
CONTINUOUS
 10
29.37900
 20
188.38400
 30
 0
 11
29.31000
 21
188.40700
  0
LINE
  8
Gravur
 62
   255
 39
0.200
  6
CONTINUOUS
 10
29.31000
 20
188.40700
 30
 0
 11
29.23800
 21
188.41900
  0
LINE
  8
Gravur
 62
   255
 39
0.200
  6
CONTINUOUS
 10
29.23800
 20
188.41900
 30
 0
 11
29.16600
 21
188.41900
  0
LINE
  8
Gravur
 62
   255
 39
0.200
  6
CONTINUOUS
 10
29.16600
 20
188.41900
 30
 0
 11
29.09400
 21
188.40700
  0
LINE
  8
Gravur
 62
   255
 39
0.200
  6
CONTINUOUS
 10
29.09400
 20
188.40700
 30
 0
 11
29.02500
 21
188.38400
  0
LINE
  8
Gravur
 62
   255
 39
0.200
  6
CONTINUOUS
 10
29.02500
 20
188.38400
 30
 0
 11
28.95900
 21
188.34900
  0
LINE
  8
Gravur
 62
   255
 39
0.200
  6
CONTINUOUS
 10
28.95900
 20
188.34900
 30
 0
 11
28.89900
 21
188.30300
  0
LINE
  8
Gravur
 62
   255
 39
0.200
  6
CONTINUOUS
 10
28.89900
 20
188.30300
 30
 0
 11
28.84600
 21
188.24800
  0
LINE
  8
Gravur
 62
   255
 39
0.200
  6
CONTINUOUS
 10
28.84600
 20
188.24800
 30
 0
 11
28.80100
 21
188.18500
  0
LINE
  8
Gravur
 62
   255
 39
0.200
  6
CONTINUOUS
 10
28.80100
 20
188.18500
 30
 0
 11
28.76400
 21
188.11500
  0
LINE
  8
Gravur
 62
   255
 39
0.200
  6
CONTINUOUS
 10
28.76400
 20
188.11500
 30
 0
 11
28.73800
 21
188.04000
  0
LINE
  8
Gravur
 62
   255
 39
0.200
  6
CONTINUOUS
 10
28.73800
 20
188.04000
 30
 0
 11
28.72100
 21
187.96100
  0
LINE
  8
Gravur
 62
   255
 39
0.200
  6
CONTINUOUS
 10
28.72100
 20
187.96100
 30
 0
 11
28.71600
 21
187.88100
  0
LINE
  8
Gravur
 62
   255
 39
0.200
  6
CONTINUOUS
 10
28.71600
 20
187.88100
 30
 0
 11
28.71600
 21
187.88100
  0
LINE
  8
Gravur
 62
   255
 39
0.200
  6
CONTINUOUS
 10
28.71600
 20
187.88100
 30
 0
 11
28.71600
 21
186.56100
  0
LINE
  8
Gravur
 62
   255
 39
0.200
  6
CONTINUOUS
 10
33.02200
 20
191.70700
 30
 0
 11
33.02600
 21
191.62800
  0
LINE
  8
Gravur
 62
   255
 39
0.200
  6
CONTINUOUS
 10
33.02600
 20
191.62800
 30
 0
 11
33.04000
 21
191.55000
  0
LINE
  8
Gravur
 62
   255
 39
0.200
  6
CONTINUOUS
 10
33.04000
 20
191.55000
 30
 0
 11
33.06400
 21
191.47500
  0
LINE
  8
Gravur
 62
   255
 39
0.200
  6
CONTINUOUS
 10
33.06400
 20
191.47500
 30
 0
 11
33.09900
 21
191.40600
  0
LINE
  8
Gravur
 62
   255
 39
0.200
  6
CONTINUOUS
 10
33.09900
 20
191.40600
 30
 0
 11
33.14300
 21
191.34300
  0
LINE
  8
Gravur
 62
   255
 39
0.200
  6
CONTINUOUS
 10
33.14300
 20
191.34300
 30
 0
 11
33.19400
 21
191.28700
  0
LINE
  8
Gravur
 62
   255
 39
0.200
  6
CONTINUOUS
 10
33.19400
 20
191.28700
 30
 0
 11
33.25200
 21
191.24100
  0
LINE
  8
Gravur
 62
   255
 39
0.200
  6
CONTINUOUS
 10
33.25200
 20
191.24100
 30
 0
 11
33.31500
 21
191.20600
  0
LINE
  8
Gravur
 62
   255
 39
0.200
  6
CONTINUOUS
 10
33.31500
 20
191.20600
 30
 0
 11
33.38400
 21
191.18100
  0
LINE
  8
Gravur
 62
   255
 39
0.200
  6
CONTINUOUS
 10
33.38400
 20
191.18100
 30
 0
 11
33.45400
 21
191.16700
  0
LINE
  8
Gravur
 62
   255
 39
0.200
  6
CONTINUOUS
 10
33.45400
 20
191.16700
 30
 0
 11
33.45400
 21
191.16700
  0
LINE
  8
Gravur
 62
   255
 39
0.200
  6
CONTINUOUS
 10
33.45400
 20
191.16700
 30
 0
 11
33.52100
 21
191.17500
  0
LINE
  8
Gravur
 62
   255
 39
0.200
  6
CONTINUOUS
 10
33.52100
 20
191.17500
 30
 0
 11
33.58500
 21
191.19500
  0
LINE
  8
Gravur
 62
   255
 39
0.200
  6
CONTINUOUS
 10
33.58500
 20
191.19500
 30
 0
 11
33.64800
 21
191.22400
  0
LINE
  8
Gravur
 62
   255
 39
0.200
  6
CONTINUOUS
 10
33.64800
 20
191.22400
 30
 0
 11
33.70400
 21
191.26400
  0
LINE
  8
Gravur
 62
   255
 39
0.200
  6
CONTINUOUS
 10
33.70400
 20
191.26400
 30
 0
 11
33.75500
 21
191.31300
  0
LINE
  8
Gravur
 62
   255
 39
0.200
  6
CONTINUOUS
 10
33.75500
 20
191.31300
 30
 0
 11
33.79900
 21
191.36900
  0
LINE
  8
Gravur
 62
   255
 39
0.200
  6
CONTINUOUS
 10
33.79900
 20
191.36900
 30
 0
 11
33.83500
 21
191.43200
  0
LINE
  8
Gravur
 62
   255
 39
0.200
  6
CONTINUOUS
 10
33.83500
 20
191.43200
 30
 0
 11
33.86100
 21
191.50100
  0
LINE
  8
Gravur
 62
   255
 39
0.200
  6
CONTINUOUS
 10
33.86100
 20
191.50100
 30
 0
 11
33.87900
 21
191.57300
  0
LINE
  8
Gravur
 62
   255
 39
0.200
  6
CONTINUOUS
 10
33.87900
 20
191.57300
 30
 0
 11
33.88600
 21
191.64700
  0
LINE
  8
Gravur
 62
   255
 39
0.200
  6
CONTINUOUS
 10
33.88600
 20
191.64700
 30
 0
 11
33.88600
 21
191.64700
  0
LINE
  8
Gravur
 62
   255
 39
0.200
  6
CONTINUOUS
 10
33.88600
 20
191.64700
 30
 0
 11
33.88600
 21
193.08700
  0
LINE
  8
Gravur
 62
   255
 39
0.200
  6
CONTINUOUS
 10
33.88600
 20
193.08700
 30
 0
 11
33.88200
 21
193.15900
  0
LINE
  8
Gravur
 62
   255
 39
0.200
  6
CONTINUOUS
 10
33.88200
 20
193.15900
 30
 0
 11
33.86700
 21
193.22800
  0
LINE
  8
Gravur
 62
   255
 39
0.200
  6
CONTINUOUS
 10
33.86700
 20
193.22800
 30
 0
 11
33.84300
 21
193.29500
  0
LINE
  8
Gravur
 62
   255
 39
0.200
  6
CONTINUOUS
 10
33.84300
 20
193.29500
 30
 0
 11
33.81100
 21
193.35700
  0
LINE
  8
Gravur
 62
   255
 39
0.200
  6
CONTINUOUS
 10
33.81100
 20
193.35700
 30
 0
 11
33.77100
 21
193.41300
  0
LINE
  8
Gravur
 62
   255
 39
0.200
  6
CONTINUOUS
 10
33.77100
 20
193.41300
 30
 0
 11
33.72300
 21
193.46200
  0
LINE
  8
Gravur
 62
   255
 39
0.200
  6
CONTINUOUS
 10
33.72300
 20
193.46200
 30
 0
 11
33.67000
 21
193.50300
  0
LINE
  8
Gravur
 62
   255
 39
0.200
  6
CONTINUOUS
 10
33.67000
 20
193.50300
 30
 0
 11
33.61200
 21
193.53400
  0
LINE
  8
Gravur
 62
   255
 39
0.200
  6
CONTINUOUS
 10
33.61200
 20
193.53400
 30
 0
 11
33.55000
 21
193.55500
  0
LINE
  8
Gravur
 62
   255
 39
0.200
  6
CONTINUOUS
 10
33.55000
 20
193.55500
 30
 0
 11
33.48600
 21
193.56600
  0
LINE
  8
Gravur
 62
   255
 39
0.200
  6
CONTINUOUS
 10
33.48600
 20
193.56600
 30
 0
 11
33.42200
 21
193.56600
  0
LINE
  8
Gravur
 62
   255
 39
0.200
  6
CONTINUOUS
 10
33.42200
 20
193.56600
 30
 0
 11
33.35800
 21
193.55500
  0
LINE
  8
Gravur
 62
   255
 39
0.200
  6
CONTINUOUS
 10
33.35800
 20
193.55500
 30
 0
 11
33.29600
 21
193.53400
  0
LINE
  8
Gravur
 62
   255
 39
0.200
  6
CONTINUOUS
 10
33.29600
 20
193.53400
 30
 0
 11
33.23800
 21
193.50300
  0
LINE
  8
Gravur
 62
   255
 39
0.200
  6
CONTINUOUS
 10
33.23800
 20
193.50300
 30
 0
 11
33.18500
 21
193.46200
  0
LINE
  8
Gravur
 62
   255
 39
0.200
  6
CONTINUOUS
 10
33.18500
 20
193.46200
 30
 0
 11
33.13700
 21
193.41300
  0
LINE
  8
Gravur
 62
   255
 39
0.200
  6
CONTINUOUS
 10
33.13700
 20
193.41300
 30
 0
 11
33.09700
 21
193.35700
  0
LINE
  8
Gravur
 62
   255
 39
0.200
  6
CONTINUOUS
 10
33.09700
 20
193.35700
 30
 0
 11
33.06500
 21
193.29500
  0
LINE
  8
Gravur
 62
   255
 39
0.200
  6
CONTINUOUS
 10
33.06500
 20
193.29500
 30
 0
 11
33.04100
 21
193.22800
  0
LINE
  8
Gravur
 62
   255
 39
0.200
  6
CONTINUOUS
 10
33.04100
 20
193.22800
 30
 0
 11
33.02600
 21
193.15900
  0
LINE
  8
Gravur
 62
   255
 39
0.200
  6
CONTINUOUS
 10
33.02600
 20
193.15900
 30
 0
 11
33.02200
 21
193.08700
  0
LINE
  8
Gravur
 62
   255
 39
0.200
  6
CONTINUOUS
 10
33.02200
 20
193.08700
 30
 0
 11
33.02200
 21
193.08700
  0
LINE
  8
Gravur
 62
   255
 39
0.200
  6
CONTINUOUS
 10
33.02200
 20
193.08700
 30
 0
 11
33.02200
 21
192.72700
  0
LINE
  8
Gravur
 62
   255
 39
0.200
  6
CONTINUOUS
 10
33.02200
 20
192.72700
 30
 0
 11
33.03500
 21
192.65500
  0
LINE
  8
Gravur
 62
   255
 39
0.200
  6
CONTINUOUS
 10
33.03500
 20
192.65500
 30
 0
 11
33.05600
 21
192.58500
  0
LINE
  8
Gravur
 62
   255
 39
0.200
  6
CONTINUOUS
 10
33.05600
 20
192.58500
 30
 0
 11
33.08700
 21
192.52000
  0
LINE
  8
Gravur
 62
   255
 39
0.200
  6
CONTINUOUS
 10
33.08700
 20
192.52000
 30
 0
 11
33.12600
 21
192.46100
  0
LINE
  8
Gravur
 62
   255
 39
0.200
  6
CONTINUOUS
 10
33.12600
 20
192.46100
 30
 0
 11
33.17300
 21
192.40800
  0
LINE
  8
Gravur
 62
   255
 39
0.200
  6
CONTINUOUS
 10
33.17300
 20
192.40800
 30
 0
 11
33.22600
 21
192.36400
  0
LINE
  8
Gravur
 62
   255
 39
0.200
  6
CONTINUOUS
 10
33.22600
 20
192.36400
 30
 0
 11
33.28500
 21
192.32900
  0
LINE
  8
Gravur
 62
   255
 39
0.200
  6
CONTINUOUS
 10
33.28500
 20
192.32900
 30
 0
 11
33.34700
 21
192.30400
  0
LINE
  8
Gravur
 62
   255
 39
0.200
  6
CONTINUOUS
 10
33.34700
 20
192.30400
 30
 0
 11
33.41200
 21
192.29000
  0
LINE
  8
Gravur
 62
   255
 39
0.200
  6
CONTINUOUS
 10
33.41200
 20
192.29000
 30
 0
 11
33.47800
 21
192.28600
  0
LINE
  8
Gravur
 62
   255
 39
0.200
  6
CONTINUOUS
 10
33.47800
 20
192.28600
 30
 0
 11
33.54400
 21
192.29300
  0
LINE
  8
Gravur
 62
   255
 39
0.200
  6
CONTINUOUS
 10
33.54400
 20
192.29300
 30
 0
 11
33.60800
 21
192.31100
  0
LINE
  8
Gravur
 62
   255
 39
0.200
  6
CONTINUOUS
 10
33.60800
 20
192.31100
 30
 0
 11
33.66900
 21
192.33900
  0
LINE
  8
Gravur
 62
   255
 39
0.200
  6
CONTINUOUS
 10
33.66900
 20
192.33900
 30
 0
 11
33.72700
 21
192.37700
  0
LINE
  8
Gravur
 62
   255
 39
0.200
  6
CONTINUOUS
 10
33.72700
 20
192.37700
 30
 0
 11
33.77700
 21
192.42400
  0
LINE
  8
Gravur
 62
   255
 39
0.200
  6
CONTINUOUS
 10
33.77700
 20
192.42400
 30
 0
 11
33.82200
 21
192.47900
  0
LINE
  8
Gravur
 62
   255
 39
0.200
  6
CONTINUOUS
 10
33.82200
 20
192.47900
 30
 0
 11
33.85800
 21
192.54000
  0
LINE
  8
Gravur
 62
   255
 39
0.200
  6
CONTINUOUS
 10
33.85800
 20
192.54000
 30
 0
 11
33.88700
 21
192.60700
  0
LINE
  8
Gravur
 62
   255
 39
0.200
  6
CONTINUOUS
 10
33.88700
 20
192.60700
 30
 0
 11
33.88600
 21
192.60700
  0
LINE
  8
Gravur
 62
   255
 39
0.200
  6
CONTINUOUS
 10
35.25700
 20
197.89800
 30
 0
 11
35.32400
 21
197.90300
  0
LINE
  8
Gravur
 62
   255
 39
0.200
  6
CONTINUOUS
 10
35.32400
 20
197.90300
 30
 0
 11
35.38900
 21
197.91800
  0
LINE
  8
Gravur
 62
   255
 39
0.200
  6
CONTINUOUS
 10
35.38900
 20
197.91800
 30
 0
 11
35.45200
 21
197.94400
  0
LINE
  8
Gravur
 62
   255
 39
0.200
  6
CONTINUOUS
 10
35.45200
 20
197.94400
 30
 0
 11
35.51100
 21
197.98000
  0
LINE
  8
Gravur
 62
   255
 39
0.200
  6
CONTINUOUS
 10
35.51100
 20
197.98000
 30
 0
 11
35.56400
 21
198.02400
  0
LINE
  8
Gravur
 62
   255
 39
0.200
  6
CONTINUOUS
 10
35.56400
 20
198.02400
 30
 0
 11
35.61200
 21
198.07700
  0
LINE
  8
Gravur
 62
   255
 39
0.200
  6
CONTINUOUS
 10
35.61200
 20
198.07700
 30
 0
 11
35.65100
 21
198.13600
  0
LINE
  8
Gravur
 62
   255
 39
0.200
  6
CONTINUOUS
 10
35.65100
 20
198.13600
 30
 0
 11
35.68400
 21
198.20100
  0
LINE
  8
Gravur
 62
   255
 39
0.200
  6
CONTINUOUS
 10
35.68400
 20
198.20100
 30
 0
 11
35.70700
 21
198.27100
  0
LINE
  8
Gravur
 62
   255
 39
0.200
  6
CONTINUOUS
 10
35.70700
 20
198.27100
 30
 0
 11
35.72100
 21
198.34400
  0
LINE
  8
Gravur
 62
   255
 39
0.200
  6
CONTINUOUS
 10
35.72100
 20
198.34400
 30
 0
 11
35.72500
 21
198.41800
  0
LINE
  8
Gravur
 62
   255
 39
0.200
  6
CONTINUOUS
 10
35.72500
 20
198.41800
 30
 0
 11
35.72500
 21
198.41800
  0
LINE
  8
Gravur
 62
   255
 39
0.200
  6
CONTINUOUS
 10
35.72500
 20
198.41800
 30
 0
 11
35.72500
 21
198.59800
  0
LINE
  8
Gravur
 62
   255
 39
0.200
  6
CONTINUOUS
 10
35.72500
 20
198.59800
 30
 0
 11
35.72000
 21
198.67100
  0
LINE
  8
Gravur
 62
   255
 39
0.200
  6
CONTINUOUS
 10
35.72000
 20
198.67100
 30
 0
 11
35.70400
 21
198.74200
  0
LINE
  8
Gravur
 62
   255
 39
0.200
  6
CONTINUOUS
 10
35.70400
 20
198.74200
 30
 0
 11
35.68100
 21
198.80900
  0
LINE
  8
Gravur
 62
   255
 39
0.200
  6
CONTINUOUS
 10
35.68100
 20
198.80900
 30
 0
 11
35.64900
 21
198.87300
  0
LINE
  8
Gravur
 62
   255
 39
0.200
  6
CONTINUOUS
 10
35.64900
 20
198.87300
 30
 0
 11
35.60800
 21
198.93000
  0
LINE
  8
Gravur
 62
   255
 39
0.200
  6
CONTINUOUS
 10
35.60800
 20
198.93000
 30
 0
 11
35.56000
 21
198.98100
  0
LINE
  8
Gravur
 62
   255
 39
0.200
  6
CONTINUOUS
 10
35.56000
 20
198.98100
 30
 0
 11
35.50700
 21
199.02300
  0
LINE
  8
Gravur
 62
   255
 39
0.200
  6
CONTINUOUS
 10
35.50700
 20
199.02300
 30
 0
 11
35.44900
 21
199.05700
  0
LINE
  8
Gravur
 62
   255
 39
0.200
  6
CONTINUOUS
 10
35.44900
 20
199.05700
 30
 0
 11
35.38700
 21
199.08100
  0
LINE
  8
Gravur
 62
   255
 39
0.200
  6
CONTINUOUS
 10
35.38700
 20
199.08100
 30
 0
 11
35.32300
 21
199.09500
  0
LINE
  8
Gravur
 62
   255
 39
0.200
  6
CONTINUOUS
 10
35.32300
 20
199.09500
 30
 0
 11
35.25700
 21
199.09800
  0
LINE
  8
Gravur
 62
   255
 39
0.200
  6
CONTINUOUS
 10
35.25700
 20
199.09800
 30
 0
 11
35.25700
 21
199.09800
  0
LINE
  8
Gravur
 62
   255
 39
0.200
  6
CONTINUOUS
 10
35.25700
 20
199.09800
 30
 0
 11
35.31800
 21
199.10300
  0
LINE
  8
Gravur
 62
   255
 39
0.200
  6
CONTINUOUS
 10
35.31800
 20
199.10300
 30
 0
 11
35.37900
 21
199.11700
  0
LINE
  8
Gravur
 62
   255
 39
0.200
  6
CONTINUOUS
 10
35.37900
 20
199.11700
 30
 0
 11
35.43700
 21
199.14100
  0
LINE
  8
Gravur
 62
   255
 39
0.200
  6
CONTINUOUS
 10
35.43700
 20
199.14100
 30
 0
 11
35.49100
 21
199.17300
  0
LINE
  8
Gravur
 62
   255
 39
0.200
  6
CONTINUOUS
 10
35.49100
 20
199.17300
 30
 0
 11
35.54100
 21
199.21400
  0
LINE
  8
Gravur
 62
   255
 39
0.200
  6
CONTINUOUS
 10
35.54100
 20
199.21400
 30
 0
 11
35.58500
 21
199.26300
  0
LINE
  8
Gravur
 62
   255
 39
0.200
  6
CONTINUOUS
 10
35.58500
 20
199.26300
 30
 0
 11
35.62200
 21
199.31800
  0
LINE
  8
Gravur
 62
   255
 39
0.200
  6
CONTINUOUS
 10
35.62200
 20
199.31800
 30
 0
 11
35.65000
 21
199.37800
  0
LINE
  8
Gravur
 62
   255
 39
0.200
  6
CONTINUOUS
 10
35.65000
 20
199.37800
 30
 0
 11
35.67200
 21
199.44200
  0
LINE
  8
Gravur
 62
   255
 39
0.200
  6
CONTINUOUS
 10
35.67200
 20
199.44200
 30
 0
 11
35.68500
 21
199.51000
  0
LINE
  8
Gravur
 62
   255
 39
0.200
  6
CONTINUOUS
 10
35.68500
 20
199.51000
 30
 0
 11
35.68900
 21
199.57800
  0
LINE
  8
Gravur
 62
   255
 39
0.200
  6
CONTINUOUS
 10
35.68900
 20
199.57800
 30
 0
 11
35.68900
 21
199.57800
  0
LINE
  8
Gravur
 62
   255
 39
0.200
  6
CONTINUOUS
 10
35.68900
 20
199.57800
 30
 0
 11
35.68900
 21
199.81800
  0
LINE
  8
Gravur
 62
   255
 39
0.200
  6
CONTINUOUS
 10
35.68900
 20
199.81800
 30
 0
 11
35.68500
 21
199.89000
  0
LINE
  8
Gravur
 62
   255
 39
0.200
  6
CONTINUOUS
 10
35.68500
 20
199.89000
 30
 0
 11
35.67000
 21
199.95900
  0
LINE
  8
Gravur
 62
   255
 39
0.200
  6
CONTINUOUS
 10
35.67000
 20
199.95900
 30
 0
 11
35.64600
 21
200.02600
  0
LINE
  8
Gravur
 62
   255
 39
0.200
  6
CONTINUOUS
 10
35.64600
 20
200.02600
 30
 0
 11
35.61400
 21
200.08800
  0
LINE
  8
Gravur
 62
   255
 39
0.200
  6
CONTINUOUS
 10
35.61400
 20
200.08800
 30
 0
 11
35.57400
 21
200.14400
  0
LINE
  8
Gravur
 62
   255
 39
0.200
  6
CONTINUOUS
 10
35.57400
 20
200.14400
 30
 0
 11
35.52600
 21
200.19300
  0
LINE
  8
Gravur
 62
   255
 39
0.200
  6
CONTINUOUS
 10
35.52600
 20
200.19300
 30
 0
 11
35.47300
 21
200.23400
  0
LINE
  8
Gravur
 62
   255
 39
0.200
  6
CONTINUOUS
 10
35.47300
 20
200.23400
 30
 0
 11
35.41500
 21
200.26500
  0
LINE
  8
Gravur
 62
   255
 39
0.200
  6
CONTINUOUS
 10
35.41500
 20
200.26500
 30
 0
 11
35.35300
 21
200.28600
  0
LINE
  8
Gravur
 62
   255
 39
0.200
  6
CONTINUOUS
 10
35.35300
 20
200.28600
 30
 0
 11
35.28900
 21
200.29700
  0
LINE
  8
Gravur
 62
   255
 39
0.200
  6
CONTINUOUS
 10
35.28900
 20
200.29700
 30
 0
 11
35.22500
 21
200.29700
  0
LINE
  8
Gravur
 62
   255
 39
0.200
  6
CONTINUOUS
 10
35.22500
 20
200.29700
 30
 0
 11
35.16100
 21
200.28600
  0
LINE
  8
Gravur
 62
   255
 39
0.200
  6
CONTINUOUS
 10
35.16100
 20
200.28600
 30
 0
 11
35.09900
 21
200.26500
  0
LINE
  8
Gravur
 62
   255
 39
0.200
  6
CONTINUOUS
 10
35.09900
 20
200.26500
 30
 0
 11
35.04100
 21
200.23400
  0
LINE
  8
Gravur
 62
   255
 39
0.200
  6
CONTINUOUS
 10
35.04100
 20
200.23400
 30
 0
 11
34.98800
 21
200.19300
  0
LINE
  8
Gravur
 62
   255
 39
0.200
  6
CONTINUOUS
 10
34.98800
 20
200.19300
 30
 0
 11
34.94000
 21
200.14400
  0
LINE
  8
Gravur
 62
   255
 39
0.200
  6
CONTINUOUS
 10
34.94000
 20
200.14400
 30
 0
 11
34.90000
 21
200.08800
  0
LINE
  8
Gravur
 62
   255
 39
0.200
  6
CONTINUOUS
 10
34.90000
 20
200.08800
 30
 0
 11
34.86800
 21
200.02600
  0
LINE
  8
Gravur
 62
   255
 39
0.200
  6
CONTINUOUS
 10
34.86800
 20
200.02600
 30
 0
 11
34.84400
 21
199.95900
  0
LINE
  8
Gravur
 62
   255
 39
0.200
  6
CONTINUOUS
 10
34.84400
 20
199.95900
 30
 0
 11
34.82900
 21
199.89000
  0
LINE
  8
Gravur
 62
   255
 39
0.200
  6
CONTINUOUS
 10
34.82900
 20
199.89000
 30
 0
 11
34.82500
 21
199.81800
  0
LINE
  8
Gravur
 62
   255
 39
0.200
  6
CONTINUOUS
 10
34.82500
 20
199.81800
 30
 0
 11
34.82500
 21
199.81800
  0
LINE
  8
Gravur
 62
   255
 39
0.200
  6
CONTINUOUS
 10
34.82500
 20
199.81800
 30
 0
 11
34.82500
 21
199.57800
  0
LINE
  8
Gravur
 62
   255
 39
0.200
  6
CONTINUOUS
 10
34.82500
 20
199.57800
 30
 0
 11
34.82900
 21
199.51000
  0
LINE
  8
Gravur
 62
   255
 39
0.200
  6
CONTINUOUS
 10
34.82900
 20
199.51000
 30
 0
 11
34.84200
 21
199.44200
  0
LINE
  8
Gravur
 62
   255
 39
0.200
  6
CONTINUOUS
 10
34.84200
 20
199.44200
 30
 0
 11
34.86400
 21
199.37800
  0
LINE
  8
Gravur
 62
   255
 39
0.200
  6
CONTINUOUS
 10
34.86400
 20
199.37800
 30
 0
 11
34.89200
 21
199.31800
  0
LINE
  8
Gravur
 62
   255
 39
0.200
  6
CONTINUOUS
 10
34.89200
 20
199.31800
 30
 0
 11
34.92900
 21
199.26300
  0
LINE
  8
Gravur
 62
   255
 39
0.200
  6
CONTINUOUS
 10
34.92900
 20
199.26300
 30
 0
 11
34.97300
 21
199.21400
  0
LINE
  8
Gravur
 62
   255
 39
0.200
  6
CONTINUOUS
 10
34.97300
 20
199.21400
 30
 0
 11
35.02300
 21
199.17300
  0
LINE
  8
Gravur
 62
   255
 39
0.200
  6
CONTINUOUS
 10
35.02300
 20
199.17300
 30
 0
 11
35.07700
 21
199.14100
  0
LINE
  8
Gravur
 62
   255
 39
0.200
  6
CONTINUOUS
 10
35.07700
 20
199.14100
 30
 0
 11
35.13500
 21
199.11700
  0
LINE
  8
Gravur
 62
   255
 39
0.200
  6
CONTINUOUS
 10
35.13500
 20
199.11700
 30
 0
 11
35.19600
 21
199.10300
  0
LINE
  8
Gravur
 62
   255
 39
0.200
  6
CONTINUOUS
 10
35.19600
 20
199.10300
 30
 0
 11
35.25700
 21
199.09800
  0
LINE
  8
Gravur
 62
   255
 39
0.200
  6
CONTINUOUS
 10
35.25700
 20
199.09800
 30
 0
 11
35.25700
 21
199.09800
  0
LINE
  8
Gravur
 62
   255
 39
0.200
  6
CONTINUOUS
 10
35.25700
 20
199.09800
 30
 0
 11
35.19100
 21
199.09500
  0
LINE
  8
Gravur
 62
   255
 39
0.200
  6
CONTINUOUS
 10
35.19100
 20
199.09500
 30
 0
 11
35.12700
 21
199.08100
  0
LINE
  8
Gravur
 62
   255
 39
0.200
  6
CONTINUOUS
 10
35.12700
 20
199.08100
 30
 0
 11
35.06500
 21
199.05700
  0
LINE
  8
Gravur
 62
   255
 39
0.200
  6
CONTINUOUS
 10
35.06500
 20
199.05700
 30
 0
 11
35.00700
 21
199.02300
  0
LINE
  8
Gravur
 62
   255
 39
0.200
  6
CONTINUOUS
 10
35.00700
 20
199.02300
 30
 0
 11
34.95400
 21
198.98100
  0
LINE
  8
Gravur
 62
   255
 39
0.200
  6
CONTINUOUS
 10
34.95400
 20
198.98100
 30
 0
 11
34.90600
 21
198.93000
  0
LINE
  8
Gravur
 62
   255
 39
0.200
  6
CONTINUOUS
 10
34.90600
 20
198.93000
 30
 0
 11
34.86500
 21
198.87300
  0
LINE
  8
Gravur
 62
   255
 39
0.200
  6
CONTINUOUS
 10
34.86500
 20
198.87300
 30
 0
 11
34.83300
 21
198.81000
  0
LINE
  8
Gravur
 62
   255
 39
0.200
  6
CONTINUOUS
 10
34.83300
 20
198.81000
 30
 0
 11
34.81000
 21
198.74200
  0
LINE
  8
Gravur
 62
   255
 39
0.200
  6
CONTINUOUS
 10
34.81000
 20
198.74200
 30
 0
 11
34.79400
 21
198.67100
  0
LINE
  8
Gravur
 62
   255
 39
0.200
  6
CONTINUOUS
 10
34.79400
 20
198.67100
 30
 0
 11
34.78900
 21
198.59800
  0
LINE
  8
Gravur
 62
   255
 39
0.200
  6
CONTINUOUS
 10
34.78900
 20
198.59800
 30
 0
 11
34.78900
 21
198.59800
  0
LINE
  8
Gravur
 62
   255
 39
0.200
  6
CONTINUOUS
 10
34.78900
 20
198.59800
 30
 0
 11
34.78900
 21
198.41800
  0
LINE
  8
Gravur
 62
   255
 39
0.200
  6
CONTINUOUS
 10
34.78900
 20
198.41800
 30
 0
 11
34.79300
 21
198.34400
  0
LINE
  8
Gravur
 62
   255
 39
0.200
  6
CONTINUOUS
 10
34.79300
 20
198.34400
 30
 0
 11
34.80700
 21
198.27100
  0
LINE
  8
Gravur
 62
   255
 39
0.200
  6
CONTINUOUS
 10
34.80700
 20
198.27100
 30
 0
 11
34.83000
 21
198.20100
  0
LINE
  8
Gravur
 62
   255
 39
0.200
  6
CONTINUOUS
 10
34.83000
 20
198.20100
 30
 0
 11
34.86300
 21
198.13600
  0
LINE
  8
Gravur
 62
   255
 39
0.200
  6
CONTINUOUS
 10
34.86300
 20
198.13600
 30
 0
 11
34.90200
 21
198.07700
  0
LINE
  8
Gravur
 62
   255
 39
0.200
  6
CONTINUOUS
 10
34.90200
 20
198.07700
 30
 0
 11
34.95000
 21
198.02400
  0
LINE
  8
Gravur
 62
   255
 39
0.200
  6
CONTINUOUS
 10
34.95000
 20
198.02400
 30
 0
 11
35.00300
 21
197.98000
  0
LINE
  8
Gravur
 62
   255
 39
0.200
  6
CONTINUOUS
 10
35.00300
 20
197.98000
 30
 0
 11
35.06200
 21
197.94400
  0
LINE
  8
Gravur
 62
   255
 39
0.200
  6
CONTINUOUS
 10
35.06200
 20
197.94400
 30
 0
 11
35.12500
 21
197.91800
  0
LINE
  8
Gravur
 62
   255
 39
0.200
  6
CONTINUOUS
 10
35.12500
 20
197.91800
 30
 0
 11
35.19000
 21
197.90300
  0
LINE
  8
Gravur
 62
   255
 39
0.200
  6
CONTINUOUS
 10
35.19000
 20
197.90300
 30
 0
 11
35.25700
 21
197.89800
  0
LINE
  8
Gravur
 62
   255
 39
0.200
  6
CONTINUOUS
 10
32.99500
 20
206.60900
 30
 0
 11
32.99500
 21
207.02900
  0
LINE
  8
Gravur
 62
   255
 39
0.200
  6
CONTINUOUS
 10
32.99500
 20
207.02900
 30
 0
 11
33.91300
 21
207.02900
  0
LINE
  8
Gravur
 62
   255
 39
0.200
  6
CONTINUOUS
 10
33.91300
 20
207.02900
 30
 0
 11
33.21100
 21
204.62900
  0
LINE
  8
Gravur
 62
   255
 39
0.200
  6
CONTINUOUS
 10
29.11300
 20
211.63500
 30
 0
 11
29.10900
 21
211.71400
  0
LINE
  8
Gravur
 62
   255
 39
0.200
  6
CONTINUOUS
 10
29.10900
 20
211.71400
 30
 0
 11
29.09500
 21
211.79200
  0
LINE
  8
Gravur
 62
   255
 39
0.200
  6
CONTINUOUS
 10
29.09500
 20
211.79200
 30
 0
 11
29.07100
 21
211.86700
  0
LINE
  8
Gravur
 62
   255
 39
0.200
  6
CONTINUOUS
 10
29.07100
 20
211.86700
 30
 0
 11
29.03600
 21
211.93600
  0
LINE
  8
Gravur
 62
   255
 39
0.200
  6
CONTINUOUS
 10
29.03600
 20
211.93600
 30
 0
 11
28.99200
 21
211.99900
  0
LINE
  8
Gravur
 62
   255
 39
0.200
  6
CONTINUOUS
 10
28.99200
 20
211.99900
 30
 0
 11
28.94100
 21
212.05500
  0
LINE
  8
Gravur
 62
   255
 39
0.200
  6
CONTINUOUS
 10
28.94100
 20
212.05500
 30
 0
 11
28.88300
 21
212.10100
  0
LINE
  8
Gravur
 62
   255
 39
0.200
  6
CONTINUOUS
 10
28.88300
 20
212.10100
 30
 0
 11
28.82000
 21
212.13600
  0
LINE
  8
Gravur
 62
   255
 39
0.200
  6
CONTINUOUS
 10
28.82000
 20
212.13600
 30
 0
 11
28.75100
 21
212.16100
  0
LINE
  8
Gravur
 62
   255
 39
0.200
  6
CONTINUOUS
 10
28.75100
 20
212.16100
 30
 0
 11
28.68100
 21
212.17500
  0
LINE
  8
Gravur
 62
   255
 39
0.200
  6
CONTINUOUS
 10
28.68100
 20
212.17500
 30
 0
 11
28.68100
 21
212.17500
  0
LINE
  8
Gravur
 62
   255
 39
0.200
  6
CONTINUOUS
 10
28.68100
 20
212.17500
 30
 0
 11
28.61400
 21
212.17600
  0
LINE
  8
Gravur
 62
   255
 39
0.200
  6
CONTINUOUS
 10
28.61400
 20
212.17600
 30
 0
 11
28.54900
 21
212.16700
  0
LINE
  8
Gravur
 62
   255
 39
0.200
  6
CONTINUOUS
 10
28.54900
 20
212.16700
 30
 0
 11
28.48600
 21
212.14600
  0
LINE
  8
Gravur
 62
   255
 39
0.200
  6
CONTINUOUS
 10
28.48600
 20
212.14600
 30
 0
 11
28.42500
 21
212.11600
  0
LINE
  8
Gravur
 62
   255
 39
0.200
  6
CONTINUOUS
 10
28.42500
 20
212.11600
 30
 0
 11
28.36900
 21
212.07500
  0
LINE
  8
Gravur
 62
   255
 39
0.200
  6
CONTINUOUS
 10
28.36900
 20
212.07500
 30
 0
 11
28.32000
 21
212.02700
  0
LINE
  8
Gravur
 62
   255
 39
0.200
  6
CONTINUOUS
 10
28.32000
 20
212.02700
 30
 0
 11
28.27800
 21
211.97000
  0
LINE
  8
Gravur
 62
   255
 39
0.200
  6
CONTINUOUS
 10
28.27800
 20
211.97000
 30
 0
 11
28.24300
 21
211.90700
  0
LINE
  8
Gravur
 62
   255
 39
0.200
  6
CONTINUOUS
 10
28.24300
 20
211.90700
 30
 0
 11
28.21800
 21
211.83900
  0
LINE
  8
Gravur
 62
   255
 39
0.200
  6
CONTINUOUS
 10
28.21800
 20
211.83900
 30
 0
 11
28.20200
 21
211.76800
  0
LINE
  8
Gravur
 62
   255
 39
0.200
  6
CONTINUOUS
 10
28.20200
 20
211.76800
 30
 0
 11
28.19500
 21
211.69500
  0
LINE
  8
Gravur
 62
   255
 39
0.200
  6
CONTINUOUS
 10
28.19500
 20
211.69500
 30
 0
 11
28.19500
 21
211.69500
  0
LINE
  8
Gravur
 62
   255
 39
0.200
  6
CONTINUOUS
 10
28.19500
 20
211.69500
 30
 0
 11
28.19500
 21
210.25500
  0
LINE
  8
Gravur
 62
   255
 39
0.200
  6
CONTINUOUS
 10
28.19500
 20
210.25500
 30
 0
 11
28.20700
 21
210.18300
  0
LINE
  8
Gravur
 62
   255
 39
0.200
  6
CONTINUOUS
 10
28.20700
 20
210.18300
 30
 0
 11
28.22600
 21
210.11300
  0
LINE
  8
Gravur
 62
   255
 39
0.200
  6
CONTINUOUS
 10
28.22600
 20
210.11300
 30
 0
 11
28.25400
 21
210.04700
  0
LINE
  8
Gravur
 62
   255
 39
0.200
  6
CONTINUOUS
 10
28.25400
 20
210.04700
 30
 0
 11
28.29100
 21
209.98500
  0
LINE
  8
Gravur
 62
   255
 39
0.200
  6
CONTINUOUS
 10
28.29100
 20
209.98500
 30
 0
 11
28.33400
 21
209.93000
  0
LINE
  8
Gravur
 62
   255
 39
0.200
  6
CONTINUOUS
 10
28.33400
 20
209.93000
 30
 0
 11
28.38400
 21
209.88200
  0
LINE
  8
Gravur
 62
   255
 39
0.200
  6
CONTINUOUS
 10
28.38400
 20
209.88200
 30
 0
 11
28.44000
 21
209.84100
  0
LINE
  8
Gravur
 62
   255
 39
0.200
  6
CONTINUOUS
 10
28.44000
 20
209.84100
 30
 0
 11
28.49900
 21
209.81000
  0
LINE
  8
Gravur
 62
   255
 39
0.200
  6
CONTINUOUS
 10
28.49900
 20
209.81000
 30
 0
 11
28.56200
 21
209.78800
  0
LINE
  8
Gravur
 62
   255
 39
0.200
  6
CONTINUOUS
 10
28.56200
 20
209.78800
 30
 0
 11
28.62700
 21
209.77500
  0
LINE
  8
Gravur
 62
   255
 39
0.200
  6
CONTINUOUS
 10
28.62700
 20
209.77500
 30
 0
 11
28.62700
 21
209.77500
  0
LINE
  8
Gravur
 62
   255
 39
0.200
  6
CONTINUOUS
 10
28.62700
 20
209.77500
 30
 0
 11
28.69800
 21
209.77900
  0
LINE
  8
Gravur
 62
   255
 39
0.200
  6
CONTINUOUS
 10
28.69800
 20
209.77900
 30
 0
 11
28.76800
 21
209.79500
  0
LINE
  8
Gravur
 62
   255
 39
0.200
  6
CONTINUOUS
 10
28.76800
 20
209.79500
 30
 0
 11
28.83600
 21
209.82200
  0
LINE
  8
Gravur
 62
   255
 39
0.200
  6
CONTINUOUS
 10
28.83600
 20
209.82200
 30
 0
 11
28.89800
 21
209.86100
  0
LINE
  8
Gravur
 62
   255
 39
0.200
  6
CONTINUOUS
 10
28.89800
 20
209.86100
 30
 0
 11
28.95500
 21
209.90900
  0
LINE
  8
Gravur
 62
   255
 39
0.200
  6
CONTINUOUS
 10
28.95500
 20
209.90900
 30
 0
 11
29.00500
 21
209.96600
  0
LINE
  8
Gravur
 62
   255
 39
0.200
  6
CONTINUOUS
 10
29.00500
 20
209.96600
 30
 0
 11
29.04600
 21
210.03100
  0
LINE
  8
Gravur
 62
   255
 39
0.200
  6
CONTINUOUS
 10
29.04600
 20
210.03100
 30
 0
 11
29.07800
 21
210.10100
  0
LINE
  8
Gravur
 62
   255
 39
0.200
  6
CONTINUOUS
 10
29.07800
 20
210.10100
 30
 0
 11
29.10000
 21
210.17700
  0
LINE
  8
Gravur
 62
   255
 39
0.200
  6
CONTINUOUS
 10
29.10000
 20
210.17700
 30
 0
 11
29.11300
 21
210.25500
  0
LINE
  8
Gravur
 62
   255
 39
0.200
  6
CONTINUOUS
 10
29.11300
 20
210.25500
 30
 0
 11
29.11300
 21
210.25500
  0
LINE
  8
Gravur
 62
   255
 39
0.200
  6
CONTINUOUS
 10
29.11300
 20
210.25500
 30
 0
 11
29.11300
 21
210.73500
  0
LINE
  8
Gravur
 62
   255
 39
0.200
  6
CONTINUOUS
 10
29.11300
 20
210.73500
 30
 0
 11
29.10000
 21
210.81100
  0
LINE
  8
Gravur
 62
   255
 39
0.200
  6
CONTINUOUS
 10
29.10000
 20
210.81100
 30
 0
 11
29.07800
 21
210.88400
  0
LINE
  8
Gravur
 62
   255
 39
0.200
  6
CONTINUOUS
 10
29.07800
 20
210.88400
 30
 0
 11
29.04600
 21
210.95200
  0
LINE
  8
Gravur
 62
   255
 39
0.200
  6
CONTINUOUS
 10
29.04600
 20
210.95200
 30
 0
 11
29.00700
 21
211.01500
  0
LINE
  8
Gravur
 62
   255
 39
0.200
  6
CONTINUOUS
 10
29.00700
 20
211.01500
 30
 0
 11
28.95900
 21
211.07100
  0
LINE
  8
Gravur
 62
   255
 39
0.200
  6
CONTINUOUS
 10
28.95900
 20
211.07100
 30
 0
 11
28.90500
 21
211.11900
  0
LINE
  8
Gravur
 62
   255
 39
0.200
  6
CONTINUOUS
 10
28.90500
 20
211.11900
 30
 0
 11
28.84600
 21
211.15800
  0
LINE
  8
Gravur
 62
   255
 39
0.200
  6
CONTINUOUS
 10
28.84600
 20
211.15800
 30
 0
 11
28.78200
 21
211.18700
  0
LINE
  8
Gravur
 62
   255
 39
0.200
  6
CONTINUOUS
 10
28.78200
 20
211.18700
 30
 0
 11
28.71400
 21
211.20600
  0
LINE
  8
Gravur
 62
   255
 39
0.200
  6
CONTINUOUS
 10
28.71400
 20
211.20600
 30
 0
 11
28.64500
 21
211.21400
  0
LINE
  8
Gravur
 62
   255
 39
0.200
  6
CONTINUOUS
 10
28.64500
 20
211.21400
 30
 0
 11
28.57600
 21
211.21100
  0
LINE
  8
Gravur
 62
   255
 39
0.200
  6
CONTINUOUS
 10
28.57600
 20
211.21100
 30
 0
 11
28.50800
 21
211.19700
  0
LINE
  8
Gravur
 62
   255
 39
0.200
  6
CONTINUOUS
 10
28.50800
 20
211.19700
 30
 0
 11
28.44200
 21
211.17300
  0
LINE
  8
Gravur
 62
   255
 39
0.200
  6
CONTINUOUS
 10
28.44200
 20
211.17300
 30
 0
 11
28.38000
 21
211.13800
  0
LINE
  8
Gravur
 62
   255
 39
0.200
  6
CONTINUOUS
 10
28.38000
 20
211.13800
 30
 0
 11
28.32400
 21
211.09400
  0
LINE
  8
Gravur
 62
   255
 39
0.200
  6
CONTINUOUS
 10
28.32400
 20
211.09400
 30
 0
 11
28.27300
 21
211.04200
  0
LINE
  8
Gravur
 62
   255
 39
0.200
  6
CONTINUOUS
 10
28.27300
 20
211.04200
 30
 0
 11
28.23000
 21
210.98200
  0
LINE
  8
Gravur
 62
   255
 39
0.200
  6
CONTINUOUS
 10
28.23000
 20
210.98200
 30
 0
 11
28.19400
 21
210.91500
  0
LINE
  8
Gravur
 62
   255
 39
0.200
  6
CONTINUOUS
 10
28.19400
 20
210.91500
 30
 0
 11
28.19500
 21
210.91500
  0
LINE
  8
Gravur
 62
   255
 39
0.200
  6
CONTINUOUS
 10
7.87100
 20
199.75800
 30
 0
 11
7.87000
 21
199.83200
  0
LINE
  8
Gravur
 62
   255
 39
0.200
  6
CONTINUOUS
 10
7.87000
 20
199.83200
 30
 0
 11
7.87900
 21
199.90600
  0
LINE
  8
Gravur
 62
   255
 39
0.200
  6
CONTINUOUS
 10
7.87900
 20
199.90600
 30
 0
 11
7.89700
 21
199.97700
  0
LINE
  8
Gravur
 62
   255
 39
0.200
  6
CONTINUOUS
 10
7.89700
 20
199.97700
 30
 0
 11
7.92600
 21
200.04400
  0
LINE
  8
Gravur
 62
   255
 39
0.200
  6
CONTINUOUS
 10
7.92600
 20
200.04400
 30
 0
 11
7.96200
 21
200.10600
  0
LINE
  8
Gravur
 62
   255
 39
0.200
  6
CONTINUOUS
 10
7.96200
 20
200.10600
 30
 0
 11
8.00700
 21
200.16100
  0
LINE
  8
Gravur
 62
   255
 39
0.200
  6
CONTINUOUS
 10
8.00700
 20
200.16100
 30
 0
 11
8.05800
 21
200.20800
  0
LINE
  8
Gravur
 62
   255
 39
0.200
  6
CONTINUOUS
 10
8.05800
 20
200.20800
 30
 0
 11
8.11600
 21
200.24600
  0
LINE
  8
Gravur
 62
   255
 39
0.200
  6
CONTINUOUS
 10
8.11600
 20
200.24600
 30
 0
 11
8.17800
 21
200.27400
  0
LINE
  8
Gravur
 62
   255
 39
0.200
  6
CONTINUOUS
 10
8.17800
 20
200.27400
 30
 0
 11
8.24300
 21
200.29200
  0
LINE
  8
Gravur
 62
   255
 39
0.200
  6
CONTINUOUS
 10
8.24300
 20
200.29200
 30
 0
 11
8.30300
 21
200.29800
  0
LINE
  8
Gravur
 62
   255
 39
0.200
  6
CONTINUOUS
 10
8.30300
 20
200.29800
 30
 0
 11
8.37300
 21
200.29600
  0
LINE
  8
Gravur
 62
   255
 39
0.200
  6
CONTINUOUS
 10
8.37300
 20
200.29600
 30
 0
 11
8.44200
 21
200.28300
  0
LINE
  8
Gravur
 62
   255
 39
0.200
  6
CONTINUOUS
 10
8.44200
 20
200.28300
 30
 0
 11
8.50800
 21
200.25800
  0
LINE
  8
Gravur
 62
   255
 39
0.200
  6
CONTINUOUS
 10
8.50800
 20
200.25800
 30
 0
 11
8.57000
 21
200.22300
  0
LINE
  8
Gravur
 62
   255
 39
0.200
  6
CONTINUOUS
 10
8.57000
 20
200.22300
 30
 0
 11
8.62600
 21
200.17800
  0
LINE
  8
Gravur
 62
   255
 39
0.200
  6
CONTINUOUS
 10
8.62600
 20
200.17800
 30
 0
 11
8.67700
 21
200.12400
  0
LINE
  8
Gravur
 62
   255
 39
0.200
  6
CONTINUOUS
 10
8.67700
 20
200.12400
 30
 0
 11
8.71900
 21
200.06300
  0
LINE
  8
Gravur
 62
   255
 39
0.200
  6
CONTINUOUS
 10
8.71900
 20
200.06300
 30
 0
 11
8.75200
 21
199.99500
  0
LINE
  8
Gravur
 62
   255
 39
0.200
  6
CONTINUOUS
 10
8.75200
 20
199.99500
 30
 0
 11
8.77700
 21
199.92300
  0
LINE
  8
Gravur
 62
   255
 39
0.200
  6
CONTINUOUS
 10
8.77700
 20
199.92300
 30
 0
 11
8.79200
 21
199.84700
  0
LINE
  8
Gravur
 62
   255
 39
0.200
  6
CONTINUOUS
 10
8.79200
 20
199.84700
 30
 0
 11
8.79700
 21
199.77000
  0
LINE
  8
Gravur
 62
   255
 39
0.200
  6
CONTINUOUS
 10
8.79700
 20
199.77000
 30
 0
 11
8.79000
 21
199.69300
  0
LINE
  8
Gravur
 62
   255
 39
0.200
  6
CONTINUOUS
 10
8.79000
 20
199.69300
 30
 0
 11
8.77400
 21
199.61800
  0
LINE
  8
Gravur
 62
   255
 39
0.200
  6
CONTINUOUS
 10
8.77400
 20
199.61800
 30
 0
 11
8.74800
 21
199.54600
  0
LINE
  8
Gravur
 62
   255
 39
0.200
  6
CONTINUOUS
 10
8.74800
 20
199.54600
 30
 0
 11
8.73500
 21
199.51800
  0
LINE
  8
Gravur
 62
   255
 39
0.200
  6
CONTINUOUS
 10
8.73500
 20
199.51800
 30
 0
 11
7.87100
 21
197.89800
  0
LINE
  8
Gravur
 62
   255
 39
0.200
  6
CONTINUOUS
 10
7.87100
 20
197.89800
 30
 0
 11
8.78900
 21
197.89800
  0
LINE
  8
Gravur
 62
   255
 39
0.200
  6
CONTINUOUS
 10
9.89300
 20
192.96700
 30
 0
 11
10.37900
 21
193.56700
  0
LINE
  8
Gravur
 62
   255
 39
0.200
  6
CONTINUOUS
 10
10.37900
 20
193.56700
 30
 0
 11
10.37900
 21
191.16700
  0
LINE
  8
Gravur
 62
   255
 39
0.200
  6
CONTINUOUS
 10
14.45100
 20
186.56100
 30
 0
 11
14.45600
 21
186.48100
  0
LINE
  8
Gravur
 62
   255
 39
0.200
  6
CONTINUOUS
 10
14.45600
 20
186.48100
 30
 0
 11
14.47300
 21
186.40200
  0
LINE
  8
Gravur
 62
   255
 39
0.200
  6
CONTINUOUS
 10
14.47300
 20
186.40200
 30
 0
 11
14.49900
 21
186.32700
  0
LINE
  8
Gravur
 62
   255
 39
0.200
  6
CONTINUOUS
 10
14.49900
 20
186.32700
 30
 0
 11
14.53600
 21
186.25700
  0
LINE
  8
Gravur
 62
   255
 39
0.200
  6
CONTINUOUS
 10
14.53600
 20
186.25700
 30
 0
 11
14.58100
 21
186.19400
  0
LINE
  8
Gravur
 62
   255
 39
0.200
  6
CONTINUOUS
 10
14.58100
 20
186.19400
 30
 0
 11
14.63400
 21
186.13900
  0
LINE
  8
Gravur
 62
   255
 39
0.200
  6
CONTINUOUS
 10
14.63400
 20
186.13900
 30
 0
 11
14.69400
 21
186.09300
  0
LINE
  8
Gravur
 62
   255
 39
0.200
  6
CONTINUOUS
 10
14.69400
 20
186.09300
 30
 0
 11
14.76000
 21
186.05800
  0
LINE
  8
Gravur
 62
   255
 39
0.200
  6
CONTINUOUS
 10
14.76000
 20
186.05800
 30
 0
 11
14.82900
 21
186.03500
  0
LINE
  8
Gravur
 62
   255
 39
0.200
  6
CONTINUOUS
 10
14.82900
 20
186.03500
 30
 0
 11
14.90100
 21
186.02300
  0
LINE
  8
Gravur
 62
   255
 39
0.200
  6
CONTINUOUS
 10
14.90100
 20
186.02300
 30
 0
 11
14.97300
 21
186.02300
  0
LINE
  8
Gravur
 62
   255
 39
0.200
  6
CONTINUOUS
 10
14.97300
 20
186.02300
 30
 0
 11
15.04500
 21
186.03500
  0
LINE
  8
Gravur
 62
   255
 39
0.200
  6
CONTINUOUS
 10
15.04500
 20
186.03500
 30
 0
 11
15.11400
 21
186.05800
  0
LINE
  8
Gravur
 62
   255
 39
0.200
  6
CONTINUOUS
 10
15.11400
 20
186.05800
 30
 0
 11
15.18000
 21
186.09300
  0
LINE
  8
Gravur
 62
   255
 39
0.200
  6
CONTINUOUS
 10
15.18000
 20
186.09300
 30
 0
 11
15.24000
 21
186.13900
  0
LINE
  8
Gravur
 62
   255
 39
0.200
  6
CONTINUOUS
 10
15.24000
 20
186.13900
 30
 0
 11
15.29300
 21
186.19400
  0
LINE
  8
Gravur
 62
   255
 39
0.200
  6
CONTINUOUS
 10
15.29300
 20
186.19400
 30
 0
 11
15.33800
 21
186.25700
  0
LINE
  8
Gravur
 62
   255
 39
0.200
  6
CONTINUOUS
 10
15.33800
 20
186.25700
 30
 0
 11
15.37500
 21
186.32700
  0
LINE
  8
Gravur
 62
   255
 39
0.200
  6
CONTINUOUS
 10
15.37500
 20
186.32700
 30
 0
 11
15.40100
 21
186.40200
  0
LINE
  8
Gravur
 62
   255
 39
0.200
  6
CONTINUOUS
 10
15.40100
 20
186.40200
 30
 0
 11
15.41800
 21
186.48100
  0
LINE
  8
Gravur
 62
   255
 39
0.200
  6
CONTINUOUS
 10
15.41800
 20
186.48100
 30
 0
 11
15.42300
 21
186.56100
  0
LINE
  8
Gravur
 62
   255
 39
0.200
  6
CONTINUOUS
 10
15.42300
 20
186.56100
 30
 0
 11
15.42300
 21
186.56100
  0
LINE
  8
Gravur
 62
   255
 39
0.200
  6
CONTINUOUS
 10
15.42300
 20
186.56100
 30
 0
 11
15.42300
 21
187.88100
  0
LINE
  8
Gravur
 62
   255
 39
0.200
  6
CONTINUOUS
 10
15.42300
 20
187.88100
 30
 0
 11
15.41800
 21
187.96100
  0
LINE
  8
Gravur
 62
   255
 39
0.200
  6
CONTINUOUS
 10
15.41800
 20
187.96100
 30
 0
 11
15.40100
 21
188.04000
  0
LINE
  8
Gravur
 62
   255
 39
0.200
  6
CONTINUOUS
 10
15.40100
 20
188.04000
 30
 0
 11
15.37500
 21
188.11500
  0
LINE
  8
Gravur
 62
   255
 39
0.200
  6
CONTINUOUS
 10
15.37500
 20
188.11500
 30
 0
 11
15.33800
 21
188.18500
  0
LINE
  8
Gravur
 62
   255
 39
0.200
  6
CONTINUOUS
 10
15.33800
 20
188.18500
 30
 0
 11
15.29300
 21
188.24800
  0
LINE
  8
Gravur
 62
   255
 39
0.200
  6
CONTINUOUS
 10
15.29300
 20
188.24800
 30
 0
 11
15.24000
 21
188.30300
  0
LINE
  8
Gravur
 62
   255
 39
0.200
  6
CONTINUOUS
 10
15.24000
 20
188.30300
 30
 0
 11
15.18000
 21
188.34900
  0
LINE
  8
Gravur
 62
   255
 39
0.200
  6
CONTINUOUS
 10
15.18000
 20
188.34900
 30
 0
 11
15.11400
 21
188.38400
  0
LINE
  8
Gravur
 62
   255
 39
0.200
  6
CONTINUOUS
 10
15.11400
 20
188.38400
 30
 0
 11
15.04500
 21
188.40700
  0
LINE
  8
Gravur
 62
   255
 39
0.200
  6
CONTINUOUS
 10
15.04500
 20
188.40700
 30
 0
 11
14.97300
 21
188.41900
  0
LINE
  8
Gravur
 62
   255
 39
0.200
  6
CONTINUOUS
 10
14.97300
 20
188.41900
 30
 0
 11
14.90100
 21
188.41900
  0
LINE
  8
Gravur
 62
   255
 39
0.200
  6
CONTINUOUS
 10
14.90100
 20
188.41900
 30
 0
 11
14.82900
 21
188.40700
  0
LINE
  8
Gravur
 62
   255
 39
0.200
  6
CONTINUOUS
 10
14.82900
 20
188.40700
 30
 0
 11
14.76000
 21
188.38400
  0
LINE
  8
Gravur
 62
   255
 39
0.200
  6
CONTINUOUS
 10
14.76000
 20
188.38400
 30
 0
 11
14.69400
 21
188.34900
  0
LINE
  8
Gravur
 62
   255
 39
0.200
  6
CONTINUOUS
 10
14.69400
 20
188.34900
 30
 0
 11
14.63400
 21
188.30300
  0
LINE
  8
Gravur
 62
   255
 39
0.200
  6
CONTINUOUS
 10
14.63400
 20
188.30300
 30
 0
 11
14.58100
 21
188.24800
  0
LINE
  8
Gravur
 62
   255
 39
0.200
  6
CONTINUOUS
 10
14.58100
 20
188.24800
 30
 0
 11
14.53600
 21
188.18500
  0
LINE
  8
Gravur
 62
   255
 39
0.200
  6
CONTINUOUS
 10
14.53600
 20
188.18500
 30
 0
 11
14.49900
 21
188.11500
  0
LINE
  8
Gravur
 62
   255
 39
0.200
  6
CONTINUOUS
 10
14.49900
 20
188.11500
 30
 0
 11
14.47300
 21
188.04000
  0
LINE
  8
Gravur
 62
   255
 39
0.200
  6
CONTINUOUS
 10
14.47300
 20
188.04000
 30
 0
 11
14.45600
 21
187.96100
  0
LINE
  8
Gravur
 62
   255
 39
0.200
  6
CONTINUOUS
 10
14.45600
 20
187.96100
 30
 0
 11
14.45100
 21
187.88100
  0
LINE
  8
Gravur
 62
   255
 39
0.200
  6
CONTINUOUS
 10
14.45100
 20
187.88100
 30
 0
 11
14.45100
 21
187.88100
  0
LINE
  8
Gravur
 62
   255
 39
0.200
  6
CONTINUOUS
 10
14.45100
 20
187.88100
 30
 0
 11
14.45100
 21
186.56100
  0
LINE
  8
Gravur
 62
   255
 39
0.200
  6
CONTINUOUS
 10
15.18000
 20
212.17500
 30
 0
 11
14.47800
 21
210.37500
  0
LINE
  8
Gravur
 62
   255
 39
0.200
  6
CONTINUOUS
 10
14.47800
 20
210.37500
 30
 0
 11
15.39600
 21
210.37500
  0
LINE
  8
Gravur
 62
   255
 39
0.200
  6
CONTINUOUS
 10
15.18000
 20
210.97500
 30
 0
 11
15.18000
 21
209.77500
  0
LINE
  8
Gravur
 62
   255
 39
0.200
  6
CONTINUOUS
 10
20.78100
 20
199.09900
 30
 0
 11
23.28100
 21
199.09900
  0
LINE
  8
Gravur
 62
   255
 39
0.200
  6
CONTINUOUS
 10
22.03100
 20
200.34900
 30
 0
 11
22.03100
 21
197.84900
  0
LINE
  8
Gravur
 62
   255
 39
0.200
  6
CONTINUOUS
 10
30.16200
 20
190.96700
 30
 0
 11
25.92000
 21
195.20900
  0
LINE
  8
Gravur
 62
   255
 39
0.200
  6
CONTINUOUS
 10
25.92000
 20
195.20900
 30
 0
 11
25.92000
 21
195.20900
  0
LINE
  8
Gravur
 62
   255
 39
0.200
  6
CONTINUOUS
 10
27.34400
 20
197.67500
 30
 0
 11
27.34400
 21
197.67500
  0
LINE
  8
Gravur
 62
   255
 39
0.200
  6
CONTINUOUS
 10
27.34400
 20
197.67500
 30
 0
 11
33.13800
 21
196.12200
  0
LINE
  8
Gravur
 62
   255
 39
0.200
  6
CONTINUOUS
 10
33.13800
 20
202.07500
 30
 0
 11
27.34400
 21
200.52200
  0
LINE
  8
Gravur
 62
   255
 39
0.200
  6
CONTINUOUS
 10
27.34400
 20
200.52200
 30
 0
 11
27.34400
 21
200.52200
  0
LINE
  8
Gravur
 62
   255
 39
0.200
  6
CONTINUOUS
 10
25.92000
 20
202.98800
 30
 0
 11
25.92000
 21
202.98800
  0
LINE
  8
Gravur
 62
   255
 39
0.200
  6
CONTINUOUS
 10
25.92000
 20
202.98800
 30
 0
 11
30.16200
 21
207.23000
  0
LINE
  8
Gravur
 62
   255
 39
0.200
  6
CONTINUOUS
 10
25.00700
 20
210.20600
 30
 0
 11
23.45400
 21
204.41200
  0
LINE
  8
Gravur
 62
   255
 39
0.200
  6
CONTINUOUS
 10
23.45400
 20
204.41200
 30
 0
 11
23.45400
 21
204.41200
  0
LINE
  8
Gravur
 62
   255
 39
0.200
  6
CONTINUOUS
 10
20.60700
 20
204.41200
 30
 0
 11
20.60700
 21
204.41200
  0
LINE
  8
Gravur
 62
   255
 39
0.200
  6
CONTINUOUS
 10
20.60700
 20
204.41200
 30
 0
 11
19.05400
 21
210.20600
  0
LINE
  8
Gravur
 62
   255
 39
0.200
  6
CONTINUOUS
 10
13.89900
 20
207.23000
 30
 0
 11
18.14100
 21
202.98800
  0
LINE
  8
Gravur
 62
   255
 39
0.200
  6
CONTINUOUS
 10
18.14100
 20
202.98800
 30
 0
 11
18.14100
 21
202.98800
  0
LINE
  8
Gravur
 62
   255
 39
0.200
  6
CONTINUOUS
 10
16.71800
 20
200.52200
 30
 0
 11
16.71800
 21
200.52200
  0
LINE
  8
Gravur
 62
   255
 39
0.200
  6
CONTINUOUS
 10
16.71800
 20
200.52200
 30
 0
 11
10.92300
 21
202.07500
  0
LINE
  8
Gravur
 62
   255
 39
0.200
  6
CONTINUOUS
 10
10.92300
 20
196.12200
 30
 0
 11
16.71800
 21
197.67500
  0
LINE
  8
Gravur
 62
   255
 39
0.200
  6
CONTINUOUS
 10
16.71800
 20
197.67500
 30
 0
 11
16.71800
 21
197.67500
  0
LINE
  8
Gravur
 62
   255
 39
0.200
  6
CONTINUOUS
 10
18.14100
 20
195.20900
 30
 0
 11
18.14100
 21
195.20900
  0
LINE
  8
Gravur
 62
   255
 39
0.200
  6
CONTINUOUS
 10
18.14100
 20
195.20900
 30
 0
 11
13.89900
 21
190.96700
  0
LINE
  8
Gravur
 62
   255
 39
0.400
  6
CONTINUOUS
 10
20.75800
 20
167.76600
 30
 0
 11
23.25800
 21
167.76600
  0
LINE
  8
Gravur
 62
   255
 39
0.400
  6
CONTINUOUS
 10
22.00800
 20
169.01600
 30
 0
 11
22.00800
 21
166.51600
  0
LINE
  8
Gravur
 62
   255
 39
0.400
  6
CONTINUOUS
 10
16.25800
 20
157.80600
 30
 0
 11
19.25700
 21
163.00200
  0
LINE
  8
Gravur
 62
   255
 39
0.400
  6
CONTINUOUS
 10
19.25700
 20
163.00200
 30
 0
 11
19.25800
 21
163.00200
  0
LINE
  8
Gravur
 62
   255
 39
0.400
  6
CONTINUOUS
 10
27.75800
 20
157.80600
 30
 0
 11
24.75800
 21
163.00200
  0
LINE
  8
Gravur
 62
   255
 39
0.400
  6
CONTINUOUS
 10
24.75800
 20
163.00200
 30
 0
 11
24.75800
 21
163.00200
  0
LINE
  8
Gravur
 62
   255
 39
0.400
  6
CONTINUOUS
 10
26.77100
 20
165.01500
 30
 0
 11
26.77100
 21
165.01500
  0
LINE
  8
Gravur
 62
   255
 39
0.400
  6
CONTINUOUS
 10
26.77100
 20
165.01500
 30
 0
 11
31.96700
 21
162.01500
  0
LINE
  8
Gravur
 62
   255
 39
0.400
  6
CONTINUOUS
 10
33.50800
 20
167.76600
 30
 0
 11
27.50800
 21
167.76600
  0
LINE
  8
Gravur
 62
   255
 39
0.400
  6
CONTINUOUS
 10
27.50800
 20
167.76600
 30
 0
 11
27.50800
 21
167.76600
  0
LINE
  8
Gravur
 62
   255
 39
0.400
  6
CONTINUOUS
 10
26.77100
 20
170.51600
 30
 0
 11
26.77100
 21
170.51600
  0
LINE
  8
Gravur
 62
   255
 39
0.400
  6
CONTINUOUS
 10
26.77100
 20
170.51600
 30
 0
 11
31.96700
 21
173.51600
  0
LINE
  8
Gravur
 62
   255
 39
0.400
  6
CONTINUOUS
 10
27.75700
 20
177.72500
 30
 0
 11
24.75800
 21
172.52900
  0
LINE
  8
Gravur
 62
   255
 39
0.400
  6
CONTINUOUS
 10
24.75800
 20
172.52900
 30
 0
 11
24.75700
 21
172.52900
  0
LINE
  8
Gravur
 62
   255
 39
0.400
  6
CONTINUOUS
 10
22.00800
 20
173.26600
 30
 0
 11
22.00800
 21
173.26600
  0
LINE
  8
Gravur
 62
   255
 39
0.400
  6
CONTINUOUS
 10
22.00800
 20
173.26600
 30
 0
 11
22.00800
 21
179.26600
  0
LINE
  8
Gravur
 62
   255
 39
0.400
  6
CONTINUOUS
 10
16.25800
 20
177.72500
 30
 0
 11
19.25800
 21
172.52900
  0
LINE
  8
Gravur
 62
   255
 39
0.400
  6
CONTINUOUS
 10
19.25800
 20
172.52900
 30
 0
 11
19.25800
 21
172.52900
  0
LINE
  8
Gravur
 62
   255
 39
0.400
  6
CONTINUOUS
 10
17.24400
 20
170.51500
 30
 0
 11
17.24400
 21
170.51600
  0
LINE
  8
Gravur
 62
   255
 39
0.400
  6
CONTINUOUS
 10
17.24400
 20
170.51600
 30
 0
 11
12.04800
 21
173.51500
  0
LINE
  8
Gravur
 62
   255
 39
0.400
  6
CONTINUOUS
 10
10.50800
 20
167.76600
 30
 0
 11
16.50800
 21
167.76600
  0
LINE
  8
Gravur
 62
   255
 39
0.400
  6
CONTINUOUS
 10
16.50800
 20
167.76600
 30
 0
 11
16.50800
 21
167.76600
  0
LINE
  8
Gravur
 62
   255
 39
0.400
  6
CONTINUOUS
 10
17.24400
 20
165.01600
 30
 0
 11
17.24400
 21
165.01600
  0
LINE
  8
Gravur
 62
   255
 39
0.400
  6
CONTINUOUS
 10
17.24400
 20
165.01600
 30
 0
 11
12.04800
 21
162.01600
  0
LINE
  8
Gravur
 62
   255
 39
0.200
  6
CONTINUOUS
 10
9.87500
 20
175.21000
 30
 0
 11
9.88400
 21
175.28100
  0
LINE
  8
Gravur
 62
   255
 39
0.200
  6
CONTINUOUS
 10
9.88400
 20
175.28100
 30
 0
 11
9.90300
 21
175.35000
  0
LINE
  8
Gravur
 62
   255
 39
0.200
  6
CONTINUOUS
 10
9.90300
 20
175.35000
 30
 0
 11
9.93000
 21
175.41500
  0
LINE
  8
Gravur
 62
   255
 39
0.200
  6
CONTINUOUS
 10
9.93000
 20
175.41500
 30
 0
 11
9.96500
 21
175.47500
  0
LINE
  8
Gravur
 62
   255
 39
0.200
  6
CONTINUOUS
 10
9.96500
 20
175.47500
 30
 0
 11
10.00800
 21
175.52800
  0
LINE
  8
Gravur
 62
   255
 39
0.200
  6
CONTINUOUS
 10
10.00800
 20
175.52800
 30
 0
 11
10.05700
 21
175.57400
  0
LINE
  8
Gravur
 62
   255
 39
0.200
  6
CONTINUOUS
 10
10.05700
 20
175.57400
 30
 0
 11
10.11200
 21
175.61200
  0
LINE
  8
Gravur
 62
   255
 39
0.200
  6
CONTINUOUS
 10
10.11200
 20
175.61200
 30
 0
 11
10.17200
 21
175.64000
  0
LINE
  8
Gravur
 62
   255
 39
0.200
  6
CONTINUOUS
 10
10.17200
 20
175.64000
 30
 0
 11
10.23400
 21
175.65900
  0
LINE
  8
Gravur
 62
   255
 39
0.200
  6
CONTINUOUS
 10
10.23400
 20
175.65900
 30
 0
 11
10.29800
 21
175.66700
  0
LINE
  8
Gravur
 62
   255
 39
0.200
  6
CONTINUOUS
 10
10.29800
 20
175.66700
 30
 0
 11
10.36300
 21
175.66500
  0
LINE
  8
Gravur
 62
   255
 39
0.200
  6
CONTINUOUS
 10
10.36300
 20
175.66500
 30
 0
 11
10.42700
 21
175.65200
  0
LINE
  8
Gravur
 62
   255
 39
0.200
  6
CONTINUOUS
 10
10.42700
 20
175.65200
 30
 0
 11
10.43300
 21
175.65000
  0
LINE
  8
Gravur
 62
   255
 39
0.200
  6
CONTINUOUS
 10
10.43300
 20
175.65000
 30
 0
 11
10.50000
 21
175.62400
  0
LINE
  8
Gravur
 62
   255
 39
0.200
  6
CONTINUOUS
 10
10.50000
 20
175.62400
 30
 0
 11
10.56300
 21
175.58600
  0
LINE
  8
Gravur
 62
   255
 39
0.200
  6
CONTINUOUS
 10
10.56300
 20
175.58600
 30
 0
 11
10.62100
 21
175.53900
  0
LINE
  8
Gravur
 62
   255
 39
0.200
  6
CONTINUOUS
 10
10.62100
 20
175.53900
 30
 0
 11
10.67100
 21
175.48300
  0
LINE
  8
Gravur
 62
   255
 39
0.200
  6
CONTINUOUS
 10
10.67100
 20
175.48300
 30
 0
 11
10.71400
 21
175.41900
  0
LINE
  8
Gravur
 62
   255
 39
0.200
  6
CONTINUOUS
 10
10.71400
 20
175.41900
 30
 0
 11
10.74700
 21
175.34800
  0
LINE
  8
Gravur
 62
   255
 39
0.200
  6
CONTINUOUS
 10
10.74700
 20
175.34800
 30
 0
 11
10.77000
 21
175.27300
  0
LINE
  8
Gravur
 62
   255
 39
0.200
  6
CONTINUOUS
 10
10.77000
 20
175.27300
 30
 0
 11
10.78300
 21
175.19500
  0
LINE
  8
Gravur
 62
   255
 39
0.200
  6
CONTINUOUS
 10
10.78300
 20
175.19500
 30
 0
 11
10.78600
 21
175.11600
  0
LINE
  8
Gravur
 62
   255
 39
0.200
  6
CONTINUOUS
 10
10.78600
 20
175.11600
 30
 0
 11
10.77800
 21
175.03700
  0
LINE
  8
Gravur
 62
   255
 39
0.200
  6
CONTINUOUS
 10
10.77800
 20
175.03700
 30
 0
 11
10.75900
 21
174.96000
  0
LINE
  8
Gravur
 62
   255
 39
0.200
  6
CONTINUOUS
 10
10.75900
 20
174.96000
 30
 0
 11
10.73000
 21
174.88700
  0
LINE
  8
Gravur
 62
   255
 39
0.200
  6
CONTINUOUS
 10
10.73000
 20
174.88700
 30
 0
 11
10.69200
 21
174.82000
  0
LINE
  8
Gravur
 62
   255
 39
0.200
  6
CONTINUOUS
 10
10.69200
 20
174.82000
 30
 0
 11
10.64500
 21
174.76000
  0
LINE
  8
Gravur
 62
   255
 39
0.200
  6
CONTINUOUS
 10
10.64500
 20
174.76000
 30
 0
 11
10.59000
 21
174.70900
  0
LINE
  8
Gravur
 62
   255
 39
0.200
  6
CONTINUOUS
 10
10.59000
 20
174.70900
 30
 0
 11
10.53000
 21
174.66600
  0
LINE
  8
Gravur
 62
   255
 39
0.200
  6
CONTINUOUS
 10
10.53000
 20
174.66600
 30
 0
 11
10.46400
 21
174.63500
  0
LINE
  8
Gravur
 62
   255
 39
0.200
  6
CONTINUOUS
 10
10.46400
 20
174.63500
 30
 0
 11
10.39500
 21
174.61500
  0
LINE
  8
Gravur
 62
   255
 39
0.200
  6
CONTINUOUS
 10
10.39500
 20
174.61500
 30
 0
 11
10.32400
 21
174.60600
  0
LINE
  8
Gravur
 62
   255
 39
0.200
  6
CONTINUOUS
 10
10.32400
 20
174.60600
 30
 0
 11
10.25300
 21
174.60900
  0
LINE
  8
Gravur
 62
   255
 39
0.200
  6
CONTINUOUS
 10
10.25300
 20
174.60900
 30
 0
 11
10.25300
 21
174.61000
  0
LINE
  8
Gravur
 62
   255
 39
0.200
  6
CONTINUOUS
 10
10.25300
 20
174.61000
 30
 0
 11
10.34100
 21
174.61500
  0
LINE
  8
Gravur
 62
   255
 39
0.200
  6
CONTINUOUS
 10
10.34100
 20
174.61500
 30
 0
 11
10.42800
 21
174.60500
  0
LINE
  8
Gravur
 62
   255
 39
0.200
  6
CONTINUOUS
 10
10.42800
 20
174.60500
 30
 0
 11
10.51400
 21
174.58100
  0
LINE
  8
Gravur
 62
   255
 39
0.200
  6
CONTINUOUS
 10
10.51400
 20
174.58100
 30
 0
 11
10.59600
 21
174.54300
  0
LINE
  8
Gravur
 62
   255
 39
0.200
  6
CONTINUOUS
 10
10.59600
 20
174.54300
 30
 0
 11
10.67000
 21
174.49100
  0
LINE
  8
Gravur
 62
   255
 39
0.200
  6
CONTINUOUS
 10
10.67000
 20
174.49100
 30
 0
 11
10.73800
 21
174.42800
  0
LINE
  8
Gravur
 62
   255
 39
0.200
  6
CONTINUOUS
 10
10.73800
 20
174.42800
 30
 0
 11
10.79600
 21
174.35500
  0
LINE
  8
Gravur
 62
   255
 39
0.200
  6
CONTINUOUS
 10
10.79600
 20
174.35500
 30
 0
 11
10.84400
 21
174.27200
  0
LINE
  8
Gravur
 62
   255
 39
0.200
  6
CONTINUOUS
 10
10.84400
 20
174.27200
 30
 0
 11
10.88000
 21
174.18300
  0
LINE
  8
Gravur
 62
   255
 39
0.200
  6
CONTINUOUS
 10
10.88000
 20
174.18300
 30
 0
 11
10.90400
 21
174.08800
  0
LINE
  8
Gravur
 62
   255
 39
0.200
  6
CONTINUOUS
 10
10.90400
 20
174.08800
 30
 0
 11
10.91400
 21
173.99100
  0
LINE
  8
Gravur
 62
   255
 39
0.200
  6
CONTINUOUS
 10
10.91400
 20
173.99100
 30
 0
 11
10.91300
 21
173.89300
  0
LINE
  8
Gravur
 62
   255
 39
0.200
  6
CONTINUOUS
 10
10.91300
 20
173.89300
 30
 0
 11
10.89600
 21
173.79700
  0
LINE
  8
Gravur
 62
   255
 39
0.200
  6
CONTINUOUS
 10
10.89600
 20
173.79700
 30
 0
 11
10.86800
 21
173.70400
  0
LINE
  8
Gravur
 62
   255
 39
0.200
  6
CONTINUOUS
 10
10.86800
 20
173.70400
 30
 0
 11
10.82800
 21
173.61700
  0
LINE
  8
Gravur
 62
   255
 39
0.200
  6
CONTINUOUS
 10
10.82800
 20
173.61700
 30
 0
 11
10.77600
 21
173.53700
  0
LINE
  8
Gravur
 62
   255
 39
0.200
  6
CONTINUOUS
 10
10.77600
 20
173.53700
 30
 0
 11
10.71500
 21
173.46700
  0
LINE
  8
Gravur
 62
   255
 39
0.200
  6
CONTINUOUS
 10
10.71500
 20
173.46700
 30
 0
 11
10.64400
 21
173.40900
  0
LINE
  8
Gravur
 62
   255
 39
0.200
  6
CONTINUOUS
 10
10.64400
 20
173.40900
 30
 0
 11
10.56600
 21
173.36200
  0
LINE
  8
Gravur
 62
   255
 39
0.200
  6
CONTINUOUS
 10
10.56600
 20
173.36200
 30
 0
 11
10.48700
 21
173.33000
  0
LINE
  8
Gravur
 62
   255
 39
0.200
  6
CONTINUOUS
 10
10.48700
 20
173.33000
 30
 0
 11
10.41300
 21
173.31200
  0
LINE
  8
Gravur
 62
   255
 39
0.200
  6
CONTINUOUS
 10
10.41300
 20
173.31200
 30
 0
 11
10.33700
 21
173.30600
  0
LINE
  8
Gravur
 62
   255
 39
0.200
  6
CONTINUOUS
 10
10.33700
 20
173.30600
 30
 0
 11
10.26200
 21
173.31200
  0
LINE
  8
Gravur
 62
   255
 39
0.200
  6
CONTINUOUS
 10
10.26200
 20
173.31200
 30
 0
 11
10.18800
 21
173.33100
  0
LINE
  8
Gravur
 62
   255
 39
0.200
  6
CONTINUOUS
 10
10.18800
 20
173.33100
 30
 0
 11
10.11700
 21
173.36100
  0
LINE
  8
Gravur
 62
   255
 39
0.200
  6
CONTINUOUS
 10
10.11700
 20
173.36100
 30
 0
 11
10.05100
 21
173.40200
  0
LINE
  8
Gravur
 62
   255
 39
0.200
  6
CONTINUOUS
 10
10.05100
 20
173.40200
 30
 0
 11
9.99100
 21
173.45300
  0
LINE
  8
Gravur
 62
   255
 39
0.200
  6
CONTINUOUS
 10
9.99100
 20
173.45300
 30
 0
 11
9.93900
 21
173.51400
  0
LINE
  8
Gravur
 62
   255
 39
0.200
  6
CONTINUOUS
 10
9.93900
 20
173.51400
 30
 0
 11
9.89500
 21
173.58200
  0
LINE
  8
Gravur
 62
   255
 39
0.200
  6
CONTINUOUS
 10
9.89500
 20
173.58200
 30
 0
 11
9.85900
 21
173.65700
  0
LINE
  8
Gravur
 62
   255
 39
0.200
  6
CONTINUOUS
 10
9.85900
 20
173.65700
 30
 0
 11
9.83500
 21
173.73700
  0
LINE
  8
Gravur
 62
   255
 39
0.200
  6
CONTINUOUS
 10
9.83500
 20
173.73700
 30
 0
 11
9.82200
 21
173.81900
  0
LINE
  8
Gravur
 62
   255
 39
0.200
  6
CONTINUOUS
 10
9.82200
 20
173.81900
 30
 0
 11
9.82100
 21
173.83000
  0
LINE
  8
Gravur
 62
   255
 39
0.400
  6
CONTINUOUS
 10
18.44800
 20
180.61800
 30
 0
 11
18.44800
 21
183.41800
  0
LINE
  8
Gravur
 62
   255
 39
0.400
  6
CONTINUOUS
 10
18.44800
 20
183.41800
 30
 0
 11
19.01500
 21
183.41800
  0
LINE
  8
Gravur
 62
   255
 39
0.400
  6
CONTINUOUS
 10
19.01500
 20
183.41800
 30
 0
 11
19.10900
 21
183.41000
  0
LINE
  8
Gravur
 62
   255
 39
0.400
  6
CONTINUOUS
 10
19.10900
 20
183.41000
 30
 0
 11
19.20100
 21
183.38700
  0
LINE
  8
Gravur
 62
   255
 39
0.400
  6
CONTINUOUS
 10
19.20100
 20
183.38700
 30
 0
 11
19.28900
 21
183.34900
  0
LINE
  8
Gravur
 62
   255
 39
0.400
  6
CONTINUOUS
 10
19.28900
 20
183.34900
 30
 0
 11
19.37000
 21
183.29600
  0
LINE
  8
Gravur
 62
   255
 39
0.400
  6
CONTINUOUS
 10
19.37000
 20
183.29600
 30
 0
 11
19.44400
 21
183.23100
  0
LINE
  8
Gravur
 62
   255
 39
0.400
  6
CONTINUOUS
 10
19.44400
 20
183.23100
 30
 0
 11
19.50800
 21
183.15400
  0
LINE
  8
Gravur
 62
   255
 39
0.400
  6
CONTINUOUS
 10
19.50800
 20
183.15400
 30
 0
 11
19.56100
 21
183.06800
  0
LINE
  8
Gravur
 62
   255
 39
0.400
  6
CONTINUOUS
 10
19.56100
 20
183.06800
 30
 0
 11
19.60200
 21
182.97400
  0
LINE
  8
Gravur
 62
   255
 39
0.400
  6
CONTINUOUS
 10
19.60200
 20
182.97400
 30
 0
 11
19.62900
 21
182.87400
  0
LINE
  8
Gravur
 62
   255
 39
0.400
  6
CONTINUOUS
 10
19.62900
 20
182.87400
 30
 0
 11
19.64400
 21
182.77000
  0
LINE
  8
Gravur
 62
   255
 39
0.400
  6
CONTINUOUS
 10
19.64400
 20
182.77000
 30
 0
 11
19.64400
 21
182.66600
  0
LINE
  8
Gravur
 62
   255
 39
0.400
  6
CONTINUOUS
 10
19.64400
 20
182.66600
 30
 0
 11
19.62900
 21
182.56200
  0
LINE
  8
Gravur
 62
   255
 39
0.400
  6
CONTINUOUS
 10
19.62900
 20
182.56200
 30
 0
 11
19.60200
 21
182.46200
  0
LINE
  8
Gravur
 62
   255
 39
0.400
  6
CONTINUOUS
 10
19.60200
 20
182.46200
 30
 0
 11
19.56100
 21
182.36800
  0
LINE
  8
Gravur
 62
   255
 39
0.400
  6
CONTINUOUS
 10
19.56100
 20
182.36800
 30
 0
 11
19.50800
 21
182.28200
  0
LINE
  8
Gravur
 62
   255
 39
0.400
  6
CONTINUOUS
 10
19.50800
 20
182.28200
 30
 0
 11
19.44400
 21
182.20500
  0
LINE
  8
Gravur
 62
   255
 39
0.400
  6
CONTINUOUS
 10
19.44400
 20
182.20500
 30
 0
 11
19.37000
 21
182.14000
  0
LINE
  8
Gravur
 62
   255
 39
0.400
  6
CONTINUOUS
 10
19.37000
 20
182.14000
 30
 0
 11
19.28900
 21
182.08700
  0
LINE
  8
Gravur
 62
   255
 39
0.400
  6
CONTINUOUS
 10
19.28900
 20
182.08700
 30
 0
 11
19.20100
 21
182.04900
  0
LINE
  8
Gravur
 62
   255
 39
0.400
  6
CONTINUOUS
 10
19.20100
 20
182.04900
 30
 0
 11
19.10900
 21
182.02600
  0
LINE
  8
Gravur
 62
   255
 39
0.400
  6
CONTINUOUS
 10
19.10900
 20
182.02600
 30
 0
 11
19.01500
 21
182.01800
  0
LINE
  8
Gravur
 62
   255
 39
0.400
  6
CONTINUOUS
 10
19.01500
 20
182.01800
 30
 0
 11
19.01500
 21
182.01800
  0
LINE
  8
Gravur
 62
   255
 39
0.400
  6
CONTINUOUS
 10
19.01500
 20
182.01800
 30
 0
 11
18.44800
 21
182.01800
  0
LINE
  8
Gravur
 62
   255
 39
0.400
  6
CONTINUOUS
 10
18.44800
 20
182.01800
 30
 0
 11
19.01500
 21
182.01800
  0
LINE
  8
Gravur
 62
   255
 39
0.400
  6
CONTINUOUS
 10
19.01500
 20
182.01800
 30
 0
 11
19.64500
 21
180.61800
  0
LINE
  8
Gravur
 62
   255
 39
0.400
  6
CONTINUOUS
 10
20.36000
 20
180.61800
 30
 0
 11
21.11600
 21
183.41800
  0
LINE
  8
Gravur
 62
   255
 39
0.400
  6
CONTINUOUS
 10
21.11600
 20
183.41800
 30
 0
 11
21.87200
 21
180.61800
  0
LINE
  8
Gravur
 62
   255
 39
0.400
  6
CONTINUOUS
 10
20.61200
 20
181.45800
 30
 0
 11
21.62000
 21
181.45800
  0
LINE
  8
Gravur
 62
   255
 39
0.400
  6
CONTINUOUS
 10
22.58600
 20
183.41800
 30
 0
 11
23.72000
 21
183.41800
  0
LINE
  8
Gravur
 62
   255
 39
0.400
  6
CONTINUOUS
 10
23.72000
 20
183.41800
 30
 0
 11
23.15300
 21
183.41800
  0
LINE
  8
Gravur
 62
   255
 39
0.400
  6
CONTINUOUS
 10
23.15300
 20
183.41800
 30
 0
 11
23.15300
 21
180.61800
  0
LINE
  8
Gravur
 62
   255
 39
0.400
  6
CONTINUOUS
 10
25.56800
 20
183.41800
 30
 0
 11
24.43400
 21
183.41800
  0
LINE
  8
Gravur
 62
   255
 39
0.400
  6
CONTINUOUS
 10
24.43400
 20
183.41800
 30
 0
 11
24.43400
 21
180.61800
  0
LINE
  8
Gravur
 62
   255
 39
0.400
  6
CONTINUOUS
 10
24.43400
 20
180.61800
 30
 0
 11
25.56800
 21
180.61800
  0
LINE
  8
Gravur
 62
   255
 39
0.400
  6
CONTINUOUS
 10
24.43400
 20
182.01800
 30
 0
 11
25.37900
 21
182.01800
  0
LINE
  8
Gravur
 62
   255
 39
0.200
  6
CONTINUOUS
 10
27.85000
 20
156.48200
 30
 0
 11
28.33600
 21
157.08200
  0
LINE
  8
Gravur
 62
   255
 39
0.200
  6
CONTINUOUS
 10
28.33600
 20
157.08200
 30
 0
 11
28.33600
 21
154.68200
  0
LINE
  8
Gravur
 62
   255
 39
0.200
  6
CONTINUOUS
 10
28.94800
 20
155.22200
 30
 0
 11
28.95300
 21
155.14200
  0
LINE
  8
Gravur
 62
   255
 39
0.200
  6
CONTINUOUS
 10
28.95300
 20
155.14200
 30
 0
 11
28.97000
 21
155.06300
  0
LINE
  8
Gravur
 62
   255
 39
0.200
  6
CONTINUOUS
 10
28.97000
 20
155.06300
 30
 0
 11
28.99600
 21
154.98800
  0
LINE
  8
Gravur
 62
   255
 39
0.200
  6
CONTINUOUS
 10
28.99600
 20
154.98800
 30
 0
 11
29.03300
 21
154.91800
  0
LINE
  8
Gravur
 62
   255
 39
0.200
  6
CONTINUOUS
 10
29.03300
 20
154.91800
 30
 0
 11
29.07800
 21
154.85500
  0
LINE
  8
Gravur
 62
   255
 39
0.200
  6
CONTINUOUS
 10
29.07800
 20
154.85500
 30
 0
 11
29.13100
 21
154.80000
  0
LINE
  8
Gravur
 62
   255
 39
0.200
  6
CONTINUOUS
 10
29.13100
 20
154.80000
 30
 0
 11
29.19100
 21
154.75400
  0
LINE
  8
Gravur
 62
   255
 39
0.200
  6
CONTINUOUS
 10
29.19100
 20
154.75400
 30
 0
 11
29.25700
 21
154.71900
  0
LINE
  8
Gravur
 62
   255
 39
0.200
  6
CONTINUOUS
 10
29.25700
 20
154.71900
 30
 0
 11
29.32600
 21
154.69600
  0
LINE
  8
Gravur
 62
   255
 39
0.200
  6
CONTINUOUS
 10
29.32600
 20
154.69600
 30
 0
 11
29.39800
 21
154.68400
  0
LINE
  8
Gravur
 62
   255
 39
0.200
  6
CONTINUOUS
 10
29.39800
 20
154.68400
 30
 0
 11
29.47000
 21
154.68400
  0
LINE
  8
Gravur
 62
   255
 39
0.200
  6
CONTINUOUS
 10
29.47000
 20
154.68400
 30
 0
 11
29.54200
 21
154.69600
  0
LINE
  8
Gravur
 62
   255
 39
0.200
  6
CONTINUOUS
 10
29.54200
 20
154.69600
 30
 0
 11
29.61100
 21
154.71900
  0
LINE
  8
Gravur
 62
   255
 39
0.200
  6
CONTINUOUS
 10
29.61100
 20
154.71900
 30
 0
 11
29.67700
 21
154.75400
  0
LINE
  8
Gravur
 62
   255
 39
0.200
  6
CONTINUOUS
 10
29.67700
 20
154.75400
 30
 0
 11
29.73700
 21
154.80000
  0
LINE
  8
Gravur
 62
   255
 39
0.200
  6
CONTINUOUS
 10
29.73700
 20
154.80000
 30
 0
 11
29.79000
 21
154.85500
  0
LINE
  8
Gravur
 62
   255
 39
0.200
  6
CONTINUOUS
 10
29.79000
 20
154.85500
 30
 0
 11
29.83500
 21
154.91800
  0
LINE
  8
Gravur
 62
   255
 39
0.200
  6
CONTINUOUS
 10
29.83500
 20
154.91800
 30
 0
 11
29.87200
 21
154.98800
  0
LINE
  8
Gravur
 62
   255
 39
0.200
  6
CONTINUOUS
 10
29.87200
 20
154.98800
 30
 0
 11
29.89800
 21
155.06300
  0
LINE
  8
Gravur
 62
   255
 39
0.200
  6
CONTINUOUS
 10
29.89800
 20
155.06300
 30
 0
 11
29.91500
 21
155.14200
  0
LINE
  8
Gravur
 62
   255
 39
0.200
  6
CONTINUOUS
 10
29.91500
 20
155.14200
 30
 0
 11
29.92000
 21
155.22200
  0
LINE
  8
Gravur
 62
   255
 39
0.200
  6
CONTINUOUS
 10
29.92000
 20
155.22200
 30
 0
 11
29.92000
 21
155.22200
  0
LINE
  8
Gravur
 62
   255
 39
0.200
  6
CONTINUOUS
 10
29.92000
 20
155.22200
 30
 0
 11
29.92000
 21
156.54200
  0
LINE
  8
Gravur
 62
   255
 39
0.200
  6
CONTINUOUS
 10
29.92000
 20
156.54200
 30
 0
 11
29.91500
 21
156.62200
  0
LINE
  8
Gravur
 62
   255
 39
0.200
  6
CONTINUOUS
 10
29.91500
 20
156.62200
 30
 0
 11
29.89800
 21
156.70100
  0
LINE
  8
Gravur
 62
   255
 39
0.200
  6
CONTINUOUS
 10
29.89800
 20
156.70100
 30
 0
 11
29.87200
 21
156.77600
  0
LINE
  8
Gravur
 62
   255
 39
0.200
  6
CONTINUOUS
 10
29.87200
 20
156.77600
 30
 0
 11
29.83500
 21
156.84600
  0
LINE
  8
Gravur
 62
   255
 39
0.200
  6
CONTINUOUS
 10
29.83500
 20
156.84600
 30
 0
 11
29.79000
 21
156.90900
  0
LINE
  8
Gravur
 62
   255
 39
0.200
  6
CONTINUOUS
 10
29.79000
 20
156.90900
 30
 0
 11
29.73700
 21
156.96400
  0
LINE
  8
Gravur
 62
   255
 39
0.200
  6
CONTINUOUS
 10
29.73700
 20
156.96400
 30
 0
 11
29.67700
 21
157.01000
  0
LINE
  8
Gravur
 62
   255
 39
0.200
  6
CONTINUOUS
 10
29.67700
 20
157.01000
 30
 0
 11
29.61100
 21
157.04500
  0
LINE
  8
Gravur
 62
   255
 39
0.200
  6
CONTINUOUS
 10
29.61100
 20
157.04500
 30
 0
 11
29.54200
 21
157.06800
  0
LINE
  8
Gravur
 62
   255
 39
0.200
  6
CONTINUOUS
 10
29.54200
 20
157.06800
 30
 0
 11
29.47000
 21
157.08000
  0
LINE
  8
Gravur
 62
   255
 39
0.200
  6
CONTINUOUS
 10
29.47000
 20
157.08000
 30
 0
 11
29.39800
 21
157.08000
  0
LINE
  8
Gravur
 62
   255
 39
0.200
  6
CONTINUOUS
 10
29.39800
 20
157.08000
 30
 0
 11
29.32600
 21
157.06800
  0
LINE
  8
Gravur
 62
   255
 39
0.200
  6
CONTINUOUS
 10
29.32600
 20
157.06800
 30
 0
 11
29.25700
 21
157.04500
  0
LINE
  8
Gravur
 62
   255
 39
0.200
  6
CONTINUOUS
 10
29.25700
 20
157.04500
 30
 0
 11
29.19100
 21
157.01000
  0
LINE
  8
Gravur
 62
   255
 39
0.200
  6
CONTINUOUS
 10
29.19100
 20
157.01000
 30
 0
 11
29.13100
 21
156.96400
  0
LINE
  8
Gravur
 62
   255
 39
0.200
  6
CONTINUOUS
 10
29.13100
 20
156.96400
 30
 0
 11
29.07800
 21
156.90900
  0
LINE
  8
Gravur
 62
   255
 39
0.200
  6
CONTINUOUS
 10
29.07800
 20
156.90900
 30
 0
 11
29.03300
 21
156.84600
  0
LINE
  8
Gravur
 62
   255
 39
0.200
  6
CONTINUOUS
 10
29.03300
 20
156.84600
 30
 0
 11
28.99600
 21
156.77600
  0
LINE
  8
Gravur
 62
   255
 39
0.200
  6
CONTINUOUS
 10
28.99600
 20
156.77600
 30
 0
 11
28.97000
 21
156.70100
  0
LINE
  8
Gravur
 62
   255
 39
0.200
  6
CONTINUOUS
 10
28.97000
 20
156.70100
 30
 0
 11
28.95300
 21
156.62200
  0
LINE
  8
Gravur
 62
   255
 39
0.200
  6
CONTINUOUS
 10
28.95300
 20
156.62200
 30
 0
 11
28.94800
 21
156.54200
  0
LINE
  8
Gravur
 62
   255
 39
0.200
  6
CONTINUOUS
 10
28.94800
 20
156.54200
 30
 0
 11
28.94800
 21
156.54200
  0
LINE
  8
Gravur
 62
   255
 39
0.200
  6
CONTINUOUS
 10
28.94800
 20
156.54200
 30
 0
 11
28.94800
 21
155.22200
  0
LINE
  8
Gravur
 62
   255
 39
0.200
  6
CONTINUOUS
 10
33.25400
 20
160.36800
 30
 0
 11
33.25800
 21
160.28900
  0
LINE
  8
Gravur
 62
   255
 39
0.200
  6
CONTINUOUS
 10
33.25800
 20
160.28900
 30
 0
 11
33.27200
 21
160.21100
  0
LINE
  8
Gravur
 62
   255
 39
0.200
  6
CONTINUOUS
 10
33.27200
 20
160.21100
 30
 0
 11
33.29600
 21
160.13600
  0
LINE
  8
Gravur
 62
   255
 39
0.200
  6
CONTINUOUS
 10
33.29600
 20
160.13600
 30
 0
 11
33.33100
 21
160.06700
  0
LINE
  8
Gravur
 62
   255
 39
0.200
  6
CONTINUOUS
 10
33.33100
 20
160.06700
 30
 0
 11
33.37500
 21
160.00400
  0
LINE
  8
Gravur
 62
   255
 39
0.200
  6
CONTINUOUS
 10
33.37500
 20
160.00400
 30
 0
 11
33.42600
 21
159.94800
  0
LINE
  8
Gravur
 62
   255
 39
0.200
  6
CONTINUOUS
 10
33.42600
 20
159.94800
 30
 0
 11
33.48400
 21
159.90200
  0
LINE
  8
Gravur
 62
   255
 39
0.200
  6
CONTINUOUS
 10
33.48400
 20
159.90200
 30
 0
 11
33.54700
 21
159.86700
  0
LINE
  8
Gravur
 62
   255
 39
0.200
  6
CONTINUOUS
 10
33.54700
 20
159.86700
 30
 0
 11
33.61600
 21
159.84200
  0
LINE
  8
Gravur
 62
   255
 39
0.200
  6
CONTINUOUS
 10
33.61600
 20
159.84200
 30
 0
 11
33.68600
 21
159.82800
  0
LINE
  8
Gravur
 62
   255
 39
0.200
  6
CONTINUOUS
 10
33.68600
 20
159.82800
 30
 0
 11
33.68600
 21
159.82800
  0
LINE
  8
Gravur
 62
   255
 39
0.200
  6
CONTINUOUS
 10
33.68600
 20
159.82800
 30
 0
 11
33.75300
 21
159.83600
  0
LINE
  8
Gravur
 62
   255
 39
0.200
  6
CONTINUOUS
 10
33.75300
 20
159.83600
 30
 0
 11
33.81700
 21
159.85600
  0
LINE
  8
Gravur
 62
   255
 39
0.200
  6
CONTINUOUS
 10
33.81700
 20
159.85600
 30
 0
 11
33.88000
 21
159.88500
  0
LINE
  8
Gravur
 62
   255
 39
0.200
  6
CONTINUOUS
 10
33.88000
 20
159.88500
 30
 0
 11
33.93600
 21
159.92500
  0
LINE
  8
Gravur
 62
   255
 39
0.200
  6
CONTINUOUS
 10
33.93600
 20
159.92500
 30
 0
 11
33.98700
 21
159.97400
  0
LINE
  8
Gravur
 62
   255
 39
0.200
  6
CONTINUOUS
 10
33.98700
 20
159.97400
 30
 0
 11
34.03100
 21
160.03000
  0
LINE
  8
Gravur
 62
   255
 39
0.200
  6
CONTINUOUS
 10
34.03100
 20
160.03000
 30
 0
 11
34.06700
 21
160.09300
  0
LINE
  8
Gravur
 62
   255
 39
0.200
  6
CONTINUOUS
 10
34.06700
 20
160.09300
 30
 0
 11
34.09300
 21
160.16200
  0
LINE
  8
Gravur
 62
   255
 39
0.200
  6
CONTINUOUS
 10
34.09300
 20
160.16200
 30
 0
 11
34.11100
 21
160.23400
  0
LINE
  8
Gravur
 62
   255
 39
0.200
  6
CONTINUOUS
 10
34.11100
 20
160.23400
 30
 0
 11
34.11800
 21
160.30800
  0
LINE
  8
Gravur
 62
   255
 39
0.200
  6
CONTINUOUS
 10
34.11800
 20
160.30800
 30
 0
 11
34.11800
 21
160.30800
  0
LINE
  8
Gravur
 62
   255
 39
0.200
  6
CONTINUOUS
 10
34.11800
 20
160.30800
 30
 0
 11
34.11800
 21
161.74800
  0
LINE
  8
Gravur
 62
   255
 39
0.200
  6
CONTINUOUS
 10
34.11800
 20
161.74800
 30
 0
 11
34.11400
 21
161.82000
  0
LINE
  8
Gravur
 62
   255
 39
0.200
  6
CONTINUOUS
 10
34.11400
 20
161.82000
 30
 0
 11
34.09900
 21
161.88900
  0
LINE
  8
Gravur
 62
   255
 39
0.200
  6
CONTINUOUS
 10
34.09900
 20
161.88900
 30
 0
 11
34.07500
 21
161.95600
  0
LINE
  8
Gravur
 62
   255
 39
0.200
  6
CONTINUOUS
 10
34.07500
 20
161.95600
 30
 0
 11
34.04300
 21
162.01800
  0
LINE
  8
Gravur
 62
   255
 39
0.200
  6
CONTINUOUS
 10
34.04300
 20
162.01800
 30
 0
 11
34.00300
 21
162.07400
  0
LINE
  8
Gravur
 62
   255
 39
0.200
  6
CONTINUOUS
 10
34.00300
 20
162.07400
 30
 0
 11
33.95500
 21
162.12300
  0
LINE
  8
Gravur
 62
   255
 39
0.200
  6
CONTINUOUS
 10
33.95500
 20
162.12300
 30
 0
 11
33.90200
 21
162.16400
  0
LINE
  8
Gravur
 62
   255
 39
0.200
  6
CONTINUOUS
 10
33.90200
 20
162.16400
 30
 0
 11
33.84400
 21
162.19500
  0
LINE
  8
Gravur
 62
   255
 39
0.200
  6
CONTINUOUS
 10
33.84400
 20
162.19500
 30
 0
 11
33.78200
 21
162.21600
  0
LINE
  8
Gravur
 62
   255
 39
0.200
  6
CONTINUOUS
 10
33.78200
 20
162.21600
 30
 0
 11
33.71800
 21
162.22700
  0
LINE
  8
Gravur
 62
   255
 39
0.200
  6
CONTINUOUS
 10
33.71800
 20
162.22700
 30
 0
 11
33.65400
 21
162.22700
  0
LINE
  8
Gravur
 62
   255
 39
0.200
  6
CONTINUOUS
 10
33.65400
 20
162.22700
 30
 0
 11
33.59000
 21
162.21600
  0
LINE
  8
Gravur
 62
   255
 39
0.200
  6
CONTINUOUS
 10
33.59000
 20
162.21600
 30
 0
 11
33.52800
 21
162.19500
  0
LINE
  8
Gravur
 62
   255
 39
0.200
  6
CONTINUOUS
 10
33.52800
 20
162.19500
 30
 0
 11
33.47000
 21
162.16400
  0
LINE
  8
Gravur
 62
   255
 39
0.200
  6
CONTINUOUS
 10
33.47000
 20
162.16400
 30
 0
 11
33.41700
 21
162.12300
  0
LINE
  8
Gravur
 62
   255
 39
0.200
  6
CONTINUOUS
 10
33.41700
 20
162.12300
 30
 0
 11
33.36900
 21
162.07400
  0
LINE
  8
Gravur
 62
   255
 39
0.200
  6
CONTINUOUS
 10
33.36900
 20
162.07400
 30
 0
 11
33.32900
 21
162.01800
  0
LINE
  8
Gravur
 62
   255
 39
0.200
  6
CONTINUOUS
 10
33.32900
 20
162.01800
 30
 0
 11
33.29700
 21
161.95600
  0
LINE
  8
Gravur
 62
   255
 39
0.200
  6
CONTINUOUS
 10
33.29700
 20
161.95600
 30
 0
 11
33.27300
 21
161.88900
  0
LINE
  8
Gravur
 62
   255
 39
0.200
  6
CONTINUOUS
 10
33.27300
 20
161.88900
 30
 0
 11
33.25800
 21
161.82000
  0
LINE
  8
Gravur
 62
   255
 39
0.200
  6
CONTINUOUS
 10
33.25800
 20
161.82000
 30
 0
 11
33.25400
 21
161.74800
  0
LINE
  8
Gravur
 62
   255
 39
0.200
  6
CONTINUOUS
 10
33.25400
 20
161.74800
 30
 0
 11
33.25400
 21
161.74800
  0
LINE
  8
Gravur
 62
   255
 39
0.200
  6
CONTINUOUS
 10
33.25400
 20
161.74800
 30
 0
 11
33.25400
 21
161.38800
  0
LINE
  8
Gravur
 62
   255
 39
0.200
  6
CONTINUOUS
 10
33.25400
 20
161.38800
 30
 0
 11
33.26700
 21
161.31600
  0
LINE
  8
Gravur
 62
   255
 39
0.200
  6
CONTINUOUS
 10
33.26700
 20
161.31600
 30
 0
 11
33.28800
 21
161.24600
  0
LINE
  8
Gravur
 62
   255
 39
0.200
  6
CONTINUOUS
 10
33.28800
 20
161.24600
 30
 0
 11
33.31900
 21
161.18100
  0
LINE
  8
Gravur
 62
   255
 39
0.200
  6
CONTINUOUS
 10
33.31900
 20
161.18100
 30
 0
 11
33.35800
 21
161.12200
  0
LINE
  8
Gravur
 62
   255
 39
0.200
  6
CONTINUOUS
 10
33.35800
 20
161.12200
 30
 0
 11
33.40500
 21
161.06900
  0
LINE
  8
Gravur
 62
   255
 39
0.200
  6
CONTINUOUS
 10
33.40500
 20
161.06900
 30
 0
 11
33.45800
 21
161.02500
  0
LINE
  8
Gravur
 62
   255
 39
0.200
  6
CONTINUOUS
 10
33.45800
 20
161.02500
 30
 0
 11
33.51700
 21
160.99000
  0
LINE
  8
Gravur
 62
   255
 39
0.200
  6
CONTINUOUS
 10
33.51700
 20
160.99000
 30
 0
 11
33.57900
 21
160.96500
  0
LINE
  8
Gravur
 62
   255
 39
0.200
  6
CONTINUOUS
 10
33.57900
 20
160.96500
 30
 0
 11
33.64400
 21
160.95100
  0
LINE
  8
Gravur
 62
   255
 39
0.200
  6
CONTINUOUS
 10
33.64400
 20
160.95100
 30
 0
 11
33.71000
 21
160.94700
  0
LINE
  8
Gravur
 62
   255
 39
0.200
  6
CONTINUOUS
 10
33.71000
 20
160.94700
 30
 0
 11
33.77600
 21
160.95400
  0
LINE
  8
Gravur
 62
   255
 39
0.200
  6
CONTINUOUS
 10
33.77600
 20
160.95400
 30
 0
 11
33.84000
 21
160.97200
  0
LINE
  8
Gravur
 62
   255
 39
0.200
  6
CONTINUOUS
 10
33.84000
 20
160.97200
 30
 0
 11
33.90100
 21
161.00000
  0
LINE
  8
Gravur
 62
   255
 39
0.200
  6
CONTINUOUS
 10
33.90100
 20
161.00000
 30
 0
 11
33.95900
 21
161.03800
  0
LINE
  8
Gravur
 62
   255
 39
0.200
  6
CONTINUOUS
 10
33.95900
 20
161.03800
 30
 0
 11
34.00900
 21
161.08500
  0
LINE
  8
Gravur
 62
   255
 39
0.200
  6
CONTINUOUS
 10
34.00900
 20
161.08500
 30
 0
 11
34.05400
 21
161.14000
  0
LINE
  8
Gravur
 62
   255
 39
0.200
  6
CONTINUOUS
 10
34.05400
 20
161.14000
 30
 0
 11
34.09000
 21
161.20100
  0
LINE
  8
Gravur
 62
   255
 39
0.200
  6
CONTINUOUS
 10
34.09000
 20
161.20100
 30
 0
 11
34.11900
 21
161.26800
  0
LINE
  8
Gravur
 62
   255
 39
0.200
  6
CONTINUOUS
 10
34.11900
 20
161.26800
 30
 0
 11
34.11800
 21
161.26800
  0
LINE
  8
Gravur
 62
   255
 39
0.200
  6
CONTINUOUS
 10
35.48900
 20
166.55900
 30
 0
 11
35.55600
 21
166.56400
  0
LINE
  8
Gravur
 62
   255
 39
0.200
  6
CONTINUOUS
 10
35.55600
 20
166.56400
 30
 0
 11
35.62100
 21
166.57900
  0
LINE
  8
Gravur
 62
   255
 39
0.200
  6
CONTINUOUS
 10
35.62100
 20
166.57900
 30
 0
 11
35.68400
 21
166.60500
  0
LINE
  8
Gravur
 62
   255
 39
0.200
  6
CONTINUOUS
 10
35.68400
 20
166.60500
 30
 0
 11
35.74300
 21
166.64100
  0
LINE
  8
Gravur
 62
   255
 39
0.200
  6
CONTINUOUS
 10
35.74300
 20
166.64100
 30
 0
 11
35.79600
 21
166.68500
  0
LINE
  8
Gravur
 62
   255
 39
0.200
  6
CONTINUOUS
 10
35.79600
 20
166.68500
 30
 0
 11
35.84400
 21
166.73800
  0
LINE
  8
Gravur
 62
   255
 39
0.200
  6
CONTINUOUS
 10
35.84400
 20
166.73800
 30
 0
 11
35.88300
 21
166.79700
  0
LINE
  8
Gravur
 62
   255
 39
0.200
  6
CONTINUOUS
 10
35.88300
 20
166.79700
 30
 0
 11
35.91600
 21
166.86200
  0
LINE
  8
Gravur
 62
   255
 39
0.200
  6
CONTINUOUS
 10
35.91600
 20
166.86200
 30
 0
 11
35.93900
 21
166.93200
  0
LINE
  8
Gravur
 62
   255
 39
0.200
  6
CONTINUOUS
 10
35.93900
 20
166.93200
 30
 0
 11
35.95300
 21
167.00500
  0
LINE
  8
Gravur
 62
   255
 39
0.200
  6
CONTINUOUS
 10
35.95300
 20
167.00500
 30
 0
 11
35.95700
 21
167.07900
  0
LINE
  8
Gravur
 62
   255
 39
0.200
  6
CONTINUOUS
 10
35.95700
 20
167.07900
 30
 0
 11
35.95700
 21
167.07900
  0
LINE
  8
Gravur
 62
   255
 39
0.200
  6
CONTINUOUS
 10
35.95700
 20
167.07900
 30
 0
 11
35.95700
 21
167.25900
  0
LINE
  8
Gravur
 62
   255
 39
0.200
  6
CONTINUOUS
 10
35.95700
 20
167.25900
 30
 0
 11
35.95200
 21
167.33200
  0
LINE
  8
Gravur
 62
   255
 39
0.200
  6
CONTINUOUS
 10
35.95200
 20
167.33200
 30
 0
 11
35.93600
 21
167.40300
  0
LINE
  8
Gravur
 62
   255
 39
0.200
  6
CONTINUOUS
 10
35.93600
 20
167.40300
 30
 0
 11
35.91300
 21
167.47000
  0
LINE
  8
Gravur
 62
   255
 39
0.200
  6
CONTINUOUS
 10
35.91300
 20
167.47000
 30
 0
 11
35.88100
 21
167.53400
  0
LINE
  8
Gravur
 62
   255
 39
0.200
  6
CONTINUOUS
 10
35.88100
 20
167.53400
 30
 0
 11
35.84000
 21
167.59100
  0
LINE
  8
Gravur
 62
   255
 39
0.200
  6
CONTINUOUS
 10
35.84000
 20
167.59100
 30
 0
 11
35.79200
 21
167.64200
  0
LINE
  8
Gravur
 62
   255
 39
0.200
  6
CONTINUOUS
 10
35.79200
 20
167.64200
 30
 0
 11
35.73900
 21
167.68400
  0
LINE
  8
Gravur
 62
   255
 39
0.200
  6
CONTINUOUS
 10
35.73900
 20
167.68400
 30
 0
 11
35.68100
 21
167.71800
  0
LINE
  8
Gravur
 62
   255
 39
0.200
  6
CONTINUOUS
 10
35.68100
 20
167.71800
 30
 0
 11
35.61900
 21
167.74200
  0
LINE
  8
Gravur
 62
   255
 39
0.200
  6
CONTINUOUS
 10
35.61900
 20
167.74200
 30
 0
 11
35.55500
 21
167.75600
  0
LINE
  8
Gravur
 62
   255
 39
0.200
  6
CONTINUOUS
 10
35.55500
 20
167.75600
 30
 0
 11
35.48900
 21
167.75900
  0
LINE
  8
Gravur
 62
   255
 39
0.200
  6
CONTINUOUS
 10
35.48900
 20
167.75900
 30
 0
 11
35.48900
 21
167.75900
  0
LINE
  8
Gravur
 62
   255
 39
0.200
  6
CONTINUOUS
 10
35.48900
 20
167.75900
 30
 0
 11
35.55000
 21
167.76400
  0
LINE
  8
Gravur
 62
   255
 39
0.200
  6
CONTINUOUS
 10
35.55000
 20
167.76400
 30
 0
 11
35.61100
 21
167.77800
  0
LINE
  8
Gravur
 62
   255
 39
0.200
  6
CONTINUOUS
 10
35.61100
 20
167.77800
 30
 0
 11
35.66900
 21
167.80200
  0
LINE
  8
Gravur
 62
   255
 39
0.200
  6
CONTINUOUS
 10
35.66900
 20
167.80200
 30
 0
 11
35.72300
 21
167.83400
  0
LINE
  8
Gravur
 62
   255
 39
0.200
  6
CONTINUOUS
 10
35.72300
 20
167.83400
 30
 0
 11
35.77300
 21
167.87500
  0
LINE
  8
Gravur
 62
   255
 39
0.200
  6
CONTINUOUS
 10
35.77300
 20
167.87500
 30
 0
 11
35.81700
 21
167.92400
  0
LINE
  8
Gravur
 62
   255
 39
0.200
  6
CONTINUOUS
 10
35.81700
 20
167.92400
 30
 0
 11
35.85400
 21
167.97900
  0
LINE
  8
Gravur
 62
   255
 39
0.200
  6
CONTINUOUS
 10
35.85400
 20
167.97900
 30
 0
 11
35.88200
 21
168.03900
  0
LINE
  8
Gravur
 62
   255
 39
0.200
  6
CONTINUOUS
 10
35.88200
 20
168.03900
 30
 0
 11
35.90400
 21
168.10300
  0
LINE
  8
Gravur
 62
   255
 39
0.200
  6
CONTINUOUS
 10
35.90400
 20
168.10300
 30
 0
 11
35.91700
 21
168.17100
  0
LINE
  8
Gravur
 62
   255
 39
0.200
  6
CONTINUOUS
 10
35.91700
 20
168.17100
 30
 0
 11
35.92100
 21
168.23900
  0
LINE
  8
Gravur
 62
   255
 39
0.200
  6
CONTINUOUS
 10
35.92100
 20
168.23900
 30
 0
 11
35.92100
 21
168.23900
  0
LINE
  8
Gravur
 62
   255
 39
0.200
  6
CONTINUOUS
 10
35.92100
 20
168.23900
 30
 0
 11
35.92100
 21
168.47900
  0
LINE
  8
Gravur
 62
   255
 39
0.200
  6
CONTINUOUS
 10
35.92100
 20
168.47900
 30
 0
 11
35.91700
 21
168.55100
  0
LINE
  8
Gravur
 62
   255
 39
0.200
  6
CONTINUOUS
 10
35.91700
 20
168.55100
 30
 0
 11
35.90200
 21
168.62000
  0
LINE
  8
Gravur
 62
   255
 39
0.200
  6
CONTINUOUS
 10
35.90200
 20
168.62000
 30
 0
 11
35.87800
 21
168.68700
  0
LINE
  8
Gravur
 62
   255
 39
0.200
  6
CONTINUOUS
 10
35.87800
 20
168.68700
 30
 0
 11
35.84600
 21
168.74900
  0
LINE
  8
Gravur
 62
   255
 39
0.200
  6
CONTINUOUS
 10
35.84600
 20
168.74900
 30
 0
 11
35.80600
 21
168.80500
  0
LINE
  8
Gravur
 62
   255
 39
0.200
  6
CONTINUOUS
 10
35.80600
 20
168.80500
 30
 0
 11
35.75800
 21
168.85400
  0
LINE
  8
Gravur
 62
   255
 39
0.200
  6
CONTINUOUS
 10
35.75800
 20
168.85400
 30
 0
 11
35.70500
 21
168.89500
  0
LINE
  8
Gravur
 62
   255
 39
0.200
  6
CONTINUOUS
 10
35.70500
 20
168.89500
 30
 0
 11
35.64700
 21
168.92600
  0
LINE
  8
Gravur
 62
   255
 39
0.200
  6
CONTINUOUS
 10
35.64700
 20
168.92600
 30
 0
 11
35.58500
 21
168.94700
  0
LINE
  8
Gravur
 62
   255
 39
0.200
  6
CONTINUOUS
 10
35.58500
 20
168.94700
 30
 0
 11
35.52100
 21
168.95800
  0
LINE
  8
Gravur
 62
   255
 39
0.200
  6
CONTINUOUS
 10
35.52100
 20
168.95800
 30
 0
 11
35.45700
 21
168.95800
  0
LINE
  8
Gravur
 62
   255
 39
0.200
  6
CONTINUOUS
 10
35.45700
 20
168.95800
 30
 0
 11
35.39300
 21
168.94700
  0
LINE
  8
Gravur
 62
   255
 39
0.200
  6
CONTINUOUS
 10
35.39300
 20
168.94700
 30
 0
 11
35.33100
 21
168.92600
  0
LINE
  8
Gravur
 62
   255
 39
0.200
  6
CONTINUOUS
 10
35.33100
 20
168.92600
 30
 0
 11
35.27300
 21
168.89500
  0
LINE
  8
Gravur
 62
   255
 39
0.200
  6
CONTINUOUS
 10
35.27300
 20
168.89500
 30
 0
 11
35.22000
 21
168.85400
  0
LINE
  8
Gravur
 62
   255
 39
0.200
  6
CONTINUOUS
 10
35.22000
 20
168.85400
 30
 0
 11
35.17200
 21
168.80500
  0
LINE
  8
Gravur
 62
   255
 39
0.200
  6
CONTINUOUS
 10
35.17200
 20
168.80500
 30
 0
 11
35.13200
 21
168.74900
  0
LINE
  8
Gravur
 62
   255
 39
0.200
  6
CONTINUOUS
 10
35.13200
 20
168.74900
 30
 0
 11
35.10000
 21
168.68700
  0
LINE
  8
Gravur
 62
   255
 39
0.200
  6
CONTINUOUS
 10
35.10000
 20
168.68700
 30
 0
 11
35.07600
 21
168.62000
  0
LINE
  8
Gravur
 62
   255
 39
0.200
  6
CONTINUOUS
 10
35.07600
 20
168.62000
 30
 0
 11
35.06100
 21
168.55100
  0
LINE
  8
Gravur
 62
   255
 39
0.200
  6
CONTINUOUS
 10
35.06100
 20
168.55100
 30
 0
 11
35.05700
 21
168.47900
  0
LINE
  8
Gravur
 62
   255
 39
0.200
  6
CONTINUOUS
 10
35.05700
 20
168.47900
 30
 0
 11
35.05700
 21
168.47900
  0
LINE
  8
Gravur
 62
   255
 39
0.200
  6
CONTINUOUS
 10
35.05700
 20
168.47900
 30
 0
 11
35.05700
 21
168.23900
  0
LINE
  8
Gravur
 62
   255
 39
0.200
  6
CONTINUOUS
 10
35.05700
 20
168.23900
 30
 0
 11
35.06100
 21
168.17100
  0
LINE
  8
Gravur
 62
   255
 39
0.200
  6
CONTINUOUS
 10
35.06100
 20
168.17100
 30
 0
 11
35.07400
 21
168.10300
  0
LINE
  8
Gravur
 62
   255
 39
0.200
  6
CONTINUOUS
 10
35.07400
 20
168.10300
 30
 0
 11
35.09600
 21
168.03900
  0
LINE
  8
Gravur
 62
   255
 39
0.200
  6
CONTINUOUS
 10
35.09600
 20
168.03900
 30
 0
 11
35.12400
 21
167.97900
  0
LINE
  8
Gravur
 62
   255
 39
0.200
  6
CONTINUOUS
 10
35.12400
 20
167.97900
 30
 0
 11
35.16100
 21
167.92400
  0
LINE
  8
Gravur
 62
   255
 39
0.200
  6
CONTINUOUS
 10
35.16100
 20
167.92400
 30
 0
 11
35.20500
 21
167.87500
  0
LINE
  8
Gravur
 62
   255
 39
0.200
  6
CONTINUOUS
 10
35.20500
 20
167.87500
 30
 0
 11
35.25500
 21
167.83400
  0
LINE
  8
Gravur
 62
   255
 39
0.200
  6
CONTINUOUS
 10
35.25500
 20
167.83400
 30
 0
 11
35.30900
 21
167.80200
  0
LINE
  8
Gravur
 62
   255
 39
0.200
  6
CONTINUOUS
 10
35.30900
 20
167.80200
 30
 0
 11
35.36700
 21
167.77800
  0
LINE
  8
Gravur
 62
   255
 39
0.200
  6
CONTINUOUS
 10
35.36700
 20
167.77800
 30
 0
 11
35.42800
 21
167.76400
  0
LINE
  8
Gravur
 62
   255
 39
0.200
  6
CONTINUOUS
 10
35.42800
 20
167.76400
 30
 0
 11
35.48900
 21
167.75900
  0
LINE
  8
Gravur
 62
   255
 39
0.200
  6
CONTINUOUS
 10
35.48900
 20
167.75900
 30
 0
 11
35.48900
 21
167.75900
  0
LINE
  8
Gravur
 62
   255
 39
0.200
  6
CONTINUOUS
 10
35.48900
 20
167.75900
 30
 0
 11
35.42300
 21
167.75600
  0
LINE
  8
Gravur
 62
   255
 39
0.200
  6
CONTINUOUS
 10
35.42300
 20
167.75600
 30
 0
 11
35.35900
 21
167.74200
  0
LINE
  8
Gravur
 62
   255
 39
0.200
  6
CONTINUOUS
 10
35.35900
 20
167.74200
 30
 0
 11
35.29700
 21
167.71800
  0
LINE
  8
Gravur
 62
   255
 39
0.200
  6
CONTINUOUS
 10
35.29700
 20
167.71800
 30
 0
 11
35.23900
 21
167.68400
  0
LINE
  8
Gravur
 62
   255
 39
0.200
  6
CONTINUOUS
 10
35.23900
 20
167.68400
 30
 0
 11
35.18600
 21
167.64200
  0
LINE
  8
Gravur
 62
   255
 39
0.200
  6
CONTINUOUS
 10
35.18600
 20
167.64200
 30
 0
 11
35.13800
 21
167.59100
  0
LINE
  8
Gravur
 62
   255
 39
0.200
  6
CONTINUOUS
 10
35.13800
 20
167.59100
 30
 0
 11
35.09700
 21
167.53400
  0
LINE
  8
Gravur
 62
   255
 39
0.200
  6
CONTINUOUS
 10
35.09700
 20
167.53400
 30
 0
 11
35.06500
 21
167.47100
  0
LINE
  8
Gravur
 62
   255
 39
0.200
  6
CONTINUOUS
 10
35.06500
 20
167.47100
 30
 0
 11
35.04200
 21
167.40300
  0
LINE
  8
Gravur
 62
   255
 39
0.200
  6
CONTINUOUS
 10
35.04200
 20
167.40300
 30
 0
 11
35.02600
 21
167.33200
  0
LINE
  8
Gravur
 62
   255
 39
0.200
  6
CONTINUOUS
 10
35.02600
 20
167.33200
 30
 0
 11
35.02100
 21
167.25900
  0
LINE
  8
Gravur
 62
   255
 39
0.200
  6
CONTINUOUS
 10
35.02100
 20
167.25900
 30
 0
 11
35.02100
 21
167.25900
  0
LINE
  8
Gravur
 62
   255
 39
0.200
  6
CONTINUOUS
 10
35.02100
 20
167.25900
 30
 0
 11
35.02100
 21
167.07900
  0
LINE
  8
Gravur
 62
   255
 39
0.200
  6
CONTINUOUS
 10
35.02100
 20
167.07900
 30
 0
 11
35.02500
 21
167.00500
  0
LINE
  8
Gravur
 62
   255
 39
0.200
  6
CONTINUOUS
 10
35.02500
 20
167.00500
 30
 0
 11
35.03900
 21
166.93200
  0
LINE
  8
Gravur
 62
   255
 39
0.200
  6
CONTINUOUS
 10
35.03900
 20
166.93200
 30
 0
 11
35.06200
 21
166.86200
  0
LINE
  8
Gravur
 62
   255
 39
0.200
  6
CONTINUOUS
 10
35.06200
 20
166.86200
 30
 0
 11
35.09500
 21
166.79700
  0
LINE
  8
Gravur
 62
   255
 39
0.200
  6
CONTINUOUS
 10
35.09500
 20
166.79700
 30
 0
 11
35.13400
 21
166.73800
  0
LINE
  8
Gravur
 62
   255
 39
0.200
  6
CONTINUOUS
 10
35.13400
 20
166.73800
 30
 0
 11
35.18200
 21
166.68500
  0
LINE
  8
Gravur
 62
   255
 39
0.200
  6
CONTINUOUS
 10
35.18200
 20
166.68500
 30
 0
 11
35.23500
 21
166.64100
  0
LINE
  8
Gravur
 62
   255
 39
0.200
  6
CONTINUOUS
 10
35.23500
 20
166.64100
 30
 0
 11
35.29400
 21
166.60500
  0
LINE
  8
Gravur
 62
   255
 39
0.200
  6
CONTINUOUS
 10
35.29400
 20
166.60500
 30
 0
 11
35.35700
 21
166.57900
  0
LINE
  8
Gravur
 62
   255
 39
0.200
  6
CONTINUOUS
 10
35.35700
 20
166.57900
 30
 0
 11
35.42200
 21
166.56400
  0
LINE
  8
Gravur
 62
   255
 39
0.200
  6
CONTINUOUS
 10
35.42200
 20
166.56400
 30
 0
 11
35.48900
 21
166.55900
  0
LINE
  8
Gravur
 62
   255
 39
0.200
  6
CONTINUOUS
 10
33.22700
 20
175.27000
 30
 0
 11
33.22700
 21
175.69000
  0
LINE
  8
Gravur
 62
   255
 39
0.200
  6
CONTINUOUS
 10
33.22700
 20
175.69000
 30
 0
 11
34.14500
 21
175.69000
  0
LINE
  8
Gravur
 62
   255
 39
0.200
  6
CONTINUOUS
 10
34.14500
 20
175.69000
 30
 0
 11
33.44300
 21
173.29000
  0
LINE
  8
Gravur
 62
   255
 39
0.200
  6
CONTINUOUS
 10
29.34500
 20
180.29600
 30
 0
 11
29.34100
 21
180.37500
  0
LINE
  8
Gravur
 62
   255
 39
0.200
  6
CONTINUOUS
 10
29.34100
 20
180.37500
 30
 0
 11
29.32700
 21
180.45300
  0
LINE
  8
Gravur
 62
   255
 39
0.200
  6
CONTINUOUS
 10
29.32700
 20
180.45300
 30
 0
 11
29.30300
 21
180.52800
  0
LINE
  8
Gravur
 62
   255
 39
0.200
  6
CONTINUOUS
 10
29.30300
 20
180.52800
 30
 0
 11
29.26800
 21
180.59700
  0
LINE
  8
Gravur
 62
   255
 39
0.200
  6
CONTINUOUS
 10
29.26800
 20
180.59700
 30
 0
 11
29.22400
 21
180.66000
  0
LINE
  8
Gravur
 62
   255
 39
0.200
  6
CONTINUOUS
 10
29.22400
 20
180.66000
 30
 0
 11
29.17300
 21
180.71600
  0
LINE
  8
Gravur
 62
   255
 39
0.200
  6
CONTINUOUS
 10
29.17300
 20
180.71600
 30
 0
 11
29.11500
 21
180.76200
  0
LINE
  8
Gravur
 62
   255
 39
0.200
  6
CONTINUOUS
 10
29.11500
 20
180.76200
 30
 0
 11
29.05200
 21
180.79700
  0
LINE
  8
Gravur
 62
   255
 39
0.200
  6
CONTINUOUS
 10
29.05200
 20
180.79700
 30
 0
 11
28.98300
 21
180.82200
  0
LINE
  8
Gravur
 62
   255
 39
0.200
  6
CONTINUOUS
 10
28.98300
 20
180.82200
 30
 0
 11
28.91300
 21
180.83600
  0
LINE
  8
Gravur
 62
   255
 39
0.200
  6
CONTINUOUS
 10
28.91300
 20
180.83600
 30
 0
 11
28.91300
 21
180.83600
  0
LINE
  8
Gravur
 62
   255
 39
0.200
  6
CONTINUOUS
 10
28.91300
 20
180.83600
 30
 0
 11
28.84600
 21
180.83700
  0
LINE
  8
Gravur
 62
   255
 39
0.200
  6
CONTINUOUS
 10
28.84600
 20
180.83700
 30
 0
 11
28.78100
 21
180.82800
  0
LINE
  8
Gravur
 62
   255
 39
0.200
  6
CONTINUOUS
 10
28.78100
 20
180.82800
 30
 0
 11
28.71800
 21
180.80700
  0
LINE
  8
Gravur
 62
   255
 39
0.200
  6
CONTINUOUS
 10
28.71800
 20
180.80700
 30
 0
 11
28.65700
 21
180.77700
  0
LINE
  8
Gravur
 62
   255
 39
0.200
  6
CONTINUOUS
 10
28.65700
 20
180.77700
 30
 0
 11
28.60100
 21
180.73600
  0
LINE
  8
Gravur
 62
   255
 39
0.200
  6
CONTINUOUS
 10
28.60100
 20
180.73600
 30
 0
 11
28.55200
 21
180.68800
  0
LINE
  8
Gravur
 62
   255
 39
0.200
  6
CONTINUOUS
 10
28.55200
 20
180.68800
 30
 0
 11
28.51000
 21
180.63100
  0
LINE
  8
Gravur
 62
   255
 39
0.200
  6
CONTINUOUS
 10
28.51000
 20
180.63100
 30
 0
 11
28.47500
 21
180.56800
  0
LINE
  8
Gravur
 62
   255
 39
0.200
  6
CONTINUOUS
 10
28.47500
 20
180.56800
 30
 0
 11
28.45000
 21
180.50000
  0
LINE
  8
Gravur
 62
   255
 39
0.200
  6
CONTINUOUS
 10
28.45000
 20
180.50000
 30
 0
 11
28.43400
 21
180.42900
  0
LINE
  8
Gravur
 62
   255
 39
0.200
  6
CONTINUOUS
 10
28.43400
 20
180.42900
 30
 0
 11
28.42700
 21
180.35600
  0
LINE
  8
Gravur
 62
   255
 39
0.200
  6
CONTINUOUS
 10
28.42700
 20
180.35600
 30
 0
 11
28.42700
 21
180.35600
  0
LINE
  8
Gravur
 62
   255
 39
0.200
  6
CONTINUOUS
 10
28.42700
 20
180.35600
 30
 0
 11
28.42700
 21
178.91600
  0
LINE
  8
Gravur
 62
   255
 39
0.200
  6
CONTINUOUS
 10
28.42700
 20
178.91600
 30
 0
 11
28.43900
 21
178.84400
  0
LINE
  8
Gravur
 62
   255
 39
0.200
  6
CONTINUOUS
 10
28.43900
 20
178.84400
 30
 0
 11
28.45800
 21
178.77400
  0
LINE
  8
Gravur
 62
   255
 39
0.200
  6
CONTINUOUS
 10
28.45800
 20
178.77400
 30
 0
 11
28.48600
 21
178.70800
  0
LINE
  8
Gravur
 62
   255
 39
0.200
  6
CONTINUOUS
 10
28.48600
 20
178.70800
 30
 0
 11
28.52300
 21
178.64600
  0
LINE
  8
Gravur
 62
   255
 39
0.200
  6
CONTINUOUS
 10
28.52300
 20
178.64600
 30
 0
 11
28.56600
 21
178.59100
  0
LINE
  8
Gravur
 62
   255
 39
0.200
  6
CONTINUOUS
 10
28.56600
 20
178.59100
 30
 0
 11
28.61600
 21
178.54300
  0
LINE
  8
Gravur
 62
   255
 39
0.200
  6
CONTINUOUS
 10
28.61600
 20
178.54300
 30
 0
 11
28.67200
 21
178.50200
  0
LINE
  8
Gravur
 62
   255
 39
0.200
  6
CONTINUOUS
 10
28.67200
 20
178.50200
 30
 0
 11
28.73100
 21
178.47100
  0
LINE
  8
Gravur
 62
   255
 39
0.200
  6
CONTINUOUS
 10
28.73100
 20
178.47100
 30
 0
 11
28.79400
 21
178.44900
  0
LINE
  8
Gravur
 62
   255
 39
0.200
  6
CONTINUOUS
 10
28.79400
 20
178.44900
 30
 0
 11
28.85900
 21
178.43600
  0
LINE
  8
Gravur
 62
   255
 39
0.200
  6
CONTINUOUS
 10
28.85900
 20
178.43600
 30
 0
 11
28.85900
 21
178.43600
  0
LINE
  8
Gravur
 62
   255
 39
0.200
  6
CONTINUOUS
 10
28.85900
 20
178.43600
 30
 0
 11
28.93000
 21
178.44000
  0
LINE
  8
Gravur
 62
   255
 39
0.200
  6
CONTINUOUS
 10
28.93000
 20
178.44000
 30
 0
 11
29.00000
 21
178.45600
  0
LINE
  8
Gravur
 62
   255
 39
0.200
  6
CONTINUOUS
 10
29.00000
 20
178.45600
 30
 0
 11
29.06800
 21
178.48300
  0
LINE
  8
Gravur
 62
   255
 39
0.200
  6
CONTINUOUS
 10
29.06800
 20
178.48300
 30
 0
 11
29.13000
 21
178.52200
  0
LINE
  8
Gravur
 62
   255
 39
0.200
  6
CONTINUOUS
 10
29.13000
 20
178.52200
 30
 0
 11
29.18700
 21
178.57000
  0
LINE
  8
Gravur
 62
   255
 39
0.200
  6
CONTINUOUS
 10
29.18700
 20
178.57000
 30
 0
 11
29.23700
 21
178.62700
  0
LINE
  8
Gravur
 62
   255
 39
0.200
  6
CONTINUOUS
 10
29.23700
 20
178.62700
 30
 0
 11
29.27800
 21
178.69200
  0
LINE
  8
Gravur
 62
   255
 39
0.200
  6
CONTINUOUS
 10
29.27800
 20
178.69200
 30
 0
 11
29.31000
 21
178.76200
  0
LINE
  8
Gravur
 62
   255
 39
0.200
  6
CONTINUOUS
 10
29.31000
 20
178.76200
 30
 0
 11
29.33200
 21
178.83800
  0
LINE
  8
Gravur
 62
   255
 39
0.200
  6
CONTINUOUS
 10
29.33200
 20
178.83800
 30
 0
 11
29.34500
 21
178.91600
  0
LINE
  8
Gravur
 62
   255
 39
0.200
  6
CONTINUOUS
 10
29.34500
 20
178.91600
 30
 0
 11
29.34500
 21
178.91600
  0
LINE
  8
Gravur
 62
   255
 39
0.200
  6
CONTINUOUS
 10
29.34500
 20
178.91600
 30
 0
 11
29.34500
 21
179.39600
  0
LINE
  8
Gravur
 62
   255
 39
0.200
  6
CONTINUOUS
 10
29.34500
 20
179.39600
 30
 0
 11
29.33200
 21
179.47200
  0
LINE
  8
Gravur
 62
   255
 39
0.200
  6
CONTINUOUS
 10
29.33200
 20
179.47200
 30
 0
 11
29.31000
 21
179.54500
  0
LINE
  8
Gravur
 62
   255
 39
0.200
  6
CONTINUOUS
 10
29.31000
 20
179.54500
 30
 0
 11
29.27800
 21
179.61300
  0
LINE
  8
Gravur
 62
   255
 39
0.200
  6
CONTINUOUS
 10
29.27800
 20
179.61300
 30
 0
 11
29.23900
 21
179.67600
  0
LINE
  8
Gravur
 62
   255
 39
0.200
  6
CONTINUOUS
 10
29.23900
 20
179.67600
 30
 0
 11
29.19100
 21
179.73200
  0
LINE
  8
Gravur
 62
   255
 39
0.200
  6
CONTINUOUS
 10
29.19100
 20
179.73200
 30
 0
 11
29.13700
 21
179.78000
  0
LINE
  8
Gravur
 62
   255
 39
0.200
  6
CONTINUOUS
 10
29.13700
 20
179.78000
 30
 0
 11
29.07800
 21
179.81900
  0
LINE
  8
Gravur
 62
   255
 39
0.200
  6
CONTINUOUS
 10
29.07800
 20
179.81900
 30
 0
 11
29.01400
 21
179.84800
  0
LINE
  8
Gravur
 62
   255
 39
0.200
  6
CONTINUOUS
 10
29.01400
 20
179.84800
 30
 0
 11
28.94600
 21
179.86700
  0
LINE
  8
Gravur
 62
   255
 39
0.200
  6
CONTINUOUS
 10
28.94600
 20
179.86700
 30
 0
 11
28.87700
 21
179.87500
  0
LINE
  8
Gravur
 62
   255
 39
0.200
  6
CONTINUOUS
 10
28.87700
 20
179.87500
 30
 0
 11
28.80800
 21
179.87200
  0
LINE
  8
Gravur
 62
   255
 39
0.200
  6
CONTINUOUS
 10
28.80800
 20
179.87200
 30
 0
 11
28.74000
 21
179.85800
  0
LINE
  8
Gravur
 62
   255
 39
0.200
  6
CONTINUOUS
 10
28.74000
 20
179.85800
 30
 0
 11
28.67400
 21
179.83400
  0
LINE
  8
Gravur
 62
   255
 39
0.200
  6
CONTINUOUS
 10
28.67400
 20
179.83400
 30
 0
 11
28.61200
 21
179.79900
  0
LINE
  8
Gravur
 62
   255
 39
0.200
  6
CONTINUOUS
 10
28.61200
 20
179.79900
 30
 0
 11
28.55600
 21
179.75500
  0
LINE
  8
Gravur
 62
   255
 39
0.200
  6
CONTINUOUS
 10
28.55600
 20
179.75500
 30
 0
 11
28.50500
 21
179.70300
  0
LINE
  8
Gravur
 62
   255
 39
0.200
  6
CONTINUOUS
 10
28.50500
 20
179.70300
 30
 0
 11
28.46200
 21
179.64300
  0
LINE
  8
Gravur
 62
   255
 39
0.200
  6
CONTINUOUS
 10
28.46200
 20
179.64300
 30
 0
 11
28.42600
 21
179.57600
  0
LINE
  8
Gravur
 62
   255
 39
0.200
  6
CONTINUOUS
 10
28.42600
 20
179.57600
 30
 0
 11
28.42700
 21
179.57600
  0
LINE
  8
Gravur
 62
   255
 39
0.200
  6
CONTINUOUS
 10
8.10300
 20
168.41900
 30
 0
 11
8.10200
 21
168.49300
  0
LINE
  8
Gravur
 62
   255
 39
0.200
  6
CONTINUOUS
 10
8.10200
 20
168.49300
 30
 0
 11
8.11100
 21
168.56700
  0
LINE
  8
Gravur
 62
   255
 39
0.200
  6
CONTINUOUS
 10
8.11100
 20
168.56700
 30
 0
 11
8.12900
 21
168.63800
  0
LINE
  8
Gravur
 62
   255
 39
0.200
  6
CONTINUOUS
 10
8.12900
 20
168.63800
 30
 0
 11
8.15800
 21
168.70500
  0
LINE
  8
Gravur
 62
   255
 39
0.200
  6
CONTINUOUS
 10
8.15800
 20
168.70500
 30
 0
 11
8.19400
 21
168.76700
  0
LINE
  8
Gravur
 62
   255
 39
0.200
  6
CONTINUOUS
 10
8.19400
 20
168.76700
 30
 0
 11
8.23900
 21
168.82200
  0
LINE
  8
Gravur
 62
   255
 39
0.200
  6
CONTINUOUS
 10
8.23900
 20
168.82200
 30
 0
 11
8.29000
 21
168.86900
  0
LINE
  8
Gravur
 62
   255
 39
0.200
  6
CONTINUOUS
 10
8.29000
 20
168.86900
 30
 0
 11
8.34800
 21
168.90700
  0
LINE
  8
Gravur
 62
   255
 39
0.200
  6
CONTINUOUS
 10
8.34800
 20
168.90700
 30
 0
 11
8.41000
 21
168.93500
  0
LINE
  8
Gravur
 62
   255
 39
0.200
  6
CONTINUOUS
 10
8.41000
 20
168.93500
 30
 0
 11
8.47500
 21
168.95300
  0
LINE
  8
Gravur
 62
   255
 39
0.200
  6
CONTINUOUS
 10
8.47500
 20
168.95300
 30
 0
 11
8.53500
 21
168.95900
  0
LINE
  8
Gravur
 62
   255
 39
0.200
  6
CONTINUOUS
 10
8.53500
 20
168.95900
 30
 0
 11
8.60500
 21
168.95700
  0
LINE
  8
Gravur
 62
   255
 39
0.200
  6
CONTINUOUS
 10
8.60500
 20
168.95700
 30
 0
 11
8.67400
 21
168.94400
  0
LINE
  8
Gravur
 62
   255
 39
0.200
  6
CONTINUOUS
 10
8.67400
 20
168.94400
 30
 0
 11
8.74000
 21
168.91900
  0
LINE
  8
Gravur
 62
   255
 39
0.200
  6
CONTINUOUS
 10
8.74000
 20
168.91900
 30
 0
 11
8.80200
 21
168.88400
  0
LINE
  8
Gravur
 62
   255
 39
0.200
  6
CONTINUOUS
 10
8.80200
 20
168.88400
 30
 0
 11
8.85800
 21
168.83900
  0
LINE
  8
Gravur
 62
   255
 39
0.200
  6
CONTINUOUS
 10
8.85800
 20
168.83900
 30
 0
 11
8.90900
 21
168.78500
  0
LINE
  8
Gravur
 62
   255
 39
0.200
  6
CONTINUOUS
 10
8.90900
 20
168.78500
 30
 0
 11
8.95100
 21
168.72400
  0
LINE
  8
Gravur
 62
   255
 39
0.200
  6
CONTINUOUS
 10
8.95100
 20
168.72400
 30
 0
 11
8.98400
 21
168.65600
  0
LINE
  8
Gravur
 62
   255
 39
0.200
  6
CONTINUOUS
 10
8.98400
 20
168.65600
 30
 0
 11
9.00900
 21
168.58400
  0
LINE
  8
Gravur
 62
   255
 39
0.200
  6
CONTINUOUS
 10
9.00900
 20
168.58400
 30
 0
 11
9.02400
 21
168.50800
  0
LINE
  8
Gravur
 62
   255
 39
0.200
  6
CONTINUOUS
 10
9.02400
 20
168.50800
 30
 0
 11
9.02900
 21
168.43100
  0
LINE
  8
Gravur
 62
   255
 39
0.200
  6
CONTINUOUS
 10
9.02900
 20
168.43100
 30
 0
 11
9.02200
 21
168.35400
  0
LINE
  8
Gravur
 62
   255
 39
0.200
  6
CONTINUOUS
 10
9.02200
 20
168.35400
 30
 0
 11
9.00600
 21
168.27900
  0
LINE
  8
Gravur
 62
   255
 39
0.200
  6
CONTINUOUS
 10
9.00600
 20
168.27900
 30
 0
 11
8.98000
 21
168.20700
  0
LINE
  8
Gravur
 62
   255
 39
0.200
  6
CONTINUOUS
 10
8.98000
 20
168.20700
 30
 0
 11
8.96700
 21
168.17900
  0
LINE
  8
Gravur
 62
   255
 39
0.200
  6
CONTINUOUS
 10
8.96700
 20
168.17900
 30
 0
 11
8.10300
 21
166.55900
  0
LINE
  8
Gravur
 62
   255
 39
0.200
  6
CONTINUOUS
 10
8.10300
 20
166.55900
 30
 0
 11
9.02100
 21
166.55900
  0
LINE
  8
Gravur
 62
   255
 39
0.200
  6
CONTINUOUS
 10
10.12500
 20
161.62800
 30
 0
 11
10.61100
 21
162.22800
  0
LINE
  8
Gravur
 62
   255
 39
0.200
  6
CONTINUOUS
 10
10.61100
 20
162.22800
 30
 0
 11
10.61100
 21
159.82800
  0
LINE
  8
Gravur
 62
   255
 39
0.200
  6
CONTINUOUS
 10
14.68300
 20
155.22200
 30
 0
 11
14.68800
 21
155.14200
  0
LINE
  8
Gravur
 62
   255
 39
0.200
  6
CONTINUOUS
 10
14.68800
 20
155.14200
 30
 0
 11
14.70500
 21
155.06300
  0
LINE
  8
Gravur
 62
   255
 39
0.200
  6
CONTINUOUS
 10
14.70500
 20
155.06300
 30
 0
 11
14.73100
 21
154.98800
  0
LINE
  8
Gravur
 62
   255
 39
0.200
  6
CONTINUOUS
 10
14.73100
 20
154.98800
 30
 0
 11
14.76800
 21
154.91800
  0
LINE
  8
Gravur
 62
   255
 39
0.200
  6
CONTINUOUS
 10
14.76800
 20
154.91800
 30
 0
 11
14.81300
 21
154.85500
  0
LINE
  8
Gravur
 62
   255
 39
0.200
  6
CONTINUOUS
 10
14.81300
 20
154.85500
 30
 0
 11
14.86600
 21
154.80000
  0
LINE
  8
Gravur
 62
   255
 39
0.200
  6
CONTINUOUS
 10
14.86600
 20
154.80000
 30
 0
 11
14.92600
 21
154.75400
  0
LINE
  8
Gravur
 62
   255
 39
0.200
  6
CONTINUOUS
 10
14.92600
 20
154.75400
 30
 0
 11
14.99200
 21
154.71900
  0
LINE
  8
Gravur
 62
   255
 39
0.200
  6
CONTINUOUS
 10
14.99200
 20
154.71900
 30
 0
 11
15.06100
 21
154.69600
  0
LINE
  8
Gravur
 62
   255
 39
0.200
  6
CONTINUOUS
 10
15.06100
 20
154.69600
 30
 0
 11
15.13300
 21
154.68400
  0
LINE
  8
Gravur
 62
   255
 39
0.200
  6
CONTINUOUS
 10
15.13300
 20
154.68400
 30
 0
 11
15.20500
 21
154.68400
  0
LINE
  8
Gravur
 62
   255
 39
0.200
  6
CONTINUOUS
 10
15.20500
 20
154.68400
 30
 0
 11
15.27700
 21
154.69600
  0
LINE
  8
Gravur
 62
   255
 39
0.200
  6
CONTINUOUS
 10
15.27700
 20
154.69600
 30
 0
 11
15.34600
 21
154.71900
  0
LINE
  8
Gravur
 62
   255
 39
0.200
  6
CONTINUOUS
 10
15.34600
 20
154.71900
 30
 0
 11
15.41200
 21
154.75400
  0
LINE
  8
Gravur
 62
   255
 39
0.200
  6
CONTINUOUS
 10
15.41200
 20
154.75400
 30
 0
 11
15.47200
 21
154.80000
  0
LINE
  8
Gravur
 62
   255
 39
0.200
  6
CONTINUOUS
 10
15.47200
 20
154.80000
 30
 0
 11
15.52500
 21
154.85500
  0
LINE
  8
Gravur
 62
   255
 39
0.200
  6
CONTINUOUS
 10
15.52500
 20
154.85500
 30
 0
 11
15.57000
 21
154.91800
  0
LINE
  8
Gravur
 62
   255
 39
0.200
  6
CONTINUOUS
 10
15.57000
 20
154.91800
 30
 0
 11
15.60700
 21
154.98800
  0
LINE
  8
Gravur
 62
   255
 39
0.200
  6
CONTINUOUS
 10
15.60700
 20
154.98800
 30
 0
 11
15.63300
 21
155.06300
  0
LINE
  8
Gravur
 62
   255
 39
0.200
  6
CONTINUOUS
 10
15.63300
 20
155.06300
 30
 0
 11
15.65000
 21
155.14200
  0
LINE
  8
Gravur
 62
   255
 39
0.200
  6
CONTINUOUS
 10
15.65000
 20
155.14200
 30
 0
 11
15.65500
 21
155.22200
  0
LINE
  8
Gravur
 62
   255
 39
0.200
  6
CONTINUOUS
 10
15.65500
 20
155.22200
 30
 0
 11
15.65500
 21
155.22200
  0
LINE
  8
Gravur
 62
   255
 39
0.200
  6
CONTINUOUS
 10
15.65500
 20
155.22200
 30
 0
 11
15.65500
 21
156.54200
  0
LINE
  8
Gravur
 62
   255
 39
0.200
  6
CONTINUOUS
 10
15.65500
 20
156.54200
 30
 0
 11
15.65000
 21
156.62200
  0
LINE
  8
Gravur
 62
   255
 39
0.200
  6
CONTINUOUS
 10
15.65000
 20
156.62200
 30
 0
 11
15.63300
 21
156.70100
  0
LINE
  8
Gravur
 62
   255
 39
0.200
  6
CONTINUOUS
 10
15.63300
 20
156.70100
 30
 0
 11
15.60700
 21
156.77600
  0
LINE
  8
Gravur
 62
   255
 39
0.200
  6
CONTINUOUS
 10
15.60700
 20
156.77600
 30
 0
 11
15.57000
 21
156.84600
  0
LINE
  8
Gravur
 62
   255
 39
0.200
  6
CONTINUOUS
 10
15.57000
 20
156.84600
 30
 0
 11
15.52500
 21
156.90900
  0
LINE
  8
Gravur
 62
   255
 39
0.200
  6
CONTINUOUS
 10
15.52500
 20
156.90900
 30
 0
 11
15.47200
 21
156.96400
  0
LINE
  8
Gravur
 62
   255
 39
0.200
  6
CONTINUOUS
 10
15.47200
 20
156.96400
 30
 0
 11
15.41200
 21
157.01000
  0
LINE
  8
Gravur
 62
   255
 39
0.200
  6
CONTINUOUS
 10
15.41200
 20
157.01000
 30
 0
 11
15.34600
 21
157.04500
  0
LINE
  8
Gravur
 62
   255
 39
0.200
  6
CONTINUOUS
 10
15.34600
 20
157.04500
 30
 0
 11
15.27700
 21
157.06800
  0
LINE
  8
Gravur
 62
   255
 39
0.200
  6
CONTINUOUS
 10
15.27700
 20
157.06800
 30
 0
 11
15.20500
 21
157.08000
  0
LINE
  8
Gravur
 62
   255
 39
0.200
  6
CONTINUOUS
 10
15.20500
 20
157.08000
 30
 0
 11
15.13300
 21
157.08000
  0
LINE
  8
Gravur
 62
   255
 39
0.200
  6
CONTINUOUS
 10
15.13300
 20
157.08000
 30
 0
 11
15.06100
 21
157.06800
  0
LINE
  8
Gravur
 62
   255
 39
0.200
  6
CONTINUOUS
 10
15.06100
 20
157.06800
 30
 0
 11
14.99200
 21
157.04500
  0
LINE
  8
Gravur
 62
   255
 39
0.200
  6
CONTINUOUS
 10
14.99200
 20
157.04500
 30
 0
 11
14.92600
 21
157.01000
  0
LINE
  8
Gravur
 62
   255
 39
0.200
  6
CONTINUOUS
 10
14.92600
 20
157.01000
 30
 0
 11
14.86600
 21
156.96400
  0
LINE
  8
Gravur
 62
   255
 39
0.200
  6
CONTINUOUS
 10
14.86600
 20
156.96400
 30
 0
 11
14.81300
 21
156.90900
  0
LINE
  8
Gravur
 62
   255
 39
0.200
  6
CONTINUOUS
 10
14.81300
 20
156.90900
 30
 0
 11
14.76800
 21
156.84600
  0
LINE
  8
Gravur
 62
   255
 39
0.200
  6
CONTINUOUS
 10
14.76800
 20
156.84600
 30
 0
 11
14.73100
 21
156.77600
  0
LINE
  8
Gravur
 62
   255
 39
0.200
  6
CONTINUOUS
 10
14.73100
 20
156.77600
 30
 0
 11
14.70500
 21
156.70100
  0
LINE
  8
Gravur
 62
   255
 39
0.200
  6
CONTINUOUS
 10
14.70500
 20
156.70100
 30
 0
 11
14.68800
 21
156.62200
  0
LINE
  8
Gravur
 62
   255
 39
0.200
  6
CONTINUOUS
 10
14.68800
 20
156.62200
 30
 0
 11
14.68300
 21
156.54200
  0
LINE
  8
Gravur
 62
   255
 39
0.200
  6
CONTINUOUS
 10
14.68300
 20
156.54200
 30
 0
 11
14.68300
 21
156.54200
  0
LINE
  8
Gravur
 62
   255
 39
0.200
  6
CONTINUOUS
 10
14.68300
 20
156.54200
 30
 0
 11
14.68300
 21
155.22200
  0
LINE
  8
Gravur
 62
   255
 39
0.200
  6
CONTINUOUS
 10
15.41200
 20
180.83600
 30
 0
 11
14.71000
 21
179.03600
  0
LINE
  8
Gravur
 62
   255
 39
0.200
  6
CONTINUOUS
 10
14.71000
 20
179.03600
 30
 0
 11
15.62800
 21
179.03600
  0
LINE
  8
Gravur
 62
   255
 39
0.200
  6
CONTINUOUS
 10
15.41200
 20
179.63600
 30
 0
 11
15.41200
 21
178.43600
  0
LINE
  8
Gravur
 62
   255
 39
0.200
  6
CONTINUOUS
 10
20.75900
 20
167.76000
 30
 0
 11
23.25900
 21
167.76000
  0
LINE
  8
Gravur
 62
   255
 39
0.200
  6
CONTINUOUS
 10
22.00900
 20
169.01000
 30
 0
 11
22.00900
 21
166.51000
  0
LINE
  8
Gravur
 62
   255
 39
0.200
  6
CONTINUOUS
 10
30.14000
 20
159.62800
 30
 0
 11
25.89800
 21
163.87000
  0
LINE
  8
Gravur
 62
   255
 39
0.200
  6
CONTINUOUS
 10
25.89800
 20
163.87000
 30
 0
 11
25.89800
 21
163.87000
  0
LINE
  8
Gravur
 62
   255
 39
0.200
  6
CONTINUOUS
 10
27.32200
 20
166.33600
 30
 0
 11
27.32200
 21
166.33600
  0
LINE
  8
Gravur
 62
   255
 39
0.200
  6
CONTINUOUS
 10
27.32200
 20
166.33600
 30
 0
 11
33.11600
 21
164.78300
  0
LINE
  8
Gravur
 62
   255
 39
0.200
  6
CONTINUOUS
 10
33.11600
 20
170.73600
 30
 0
 11
27.32200
 21
169.18300
  0
LINE
  8
Gravur
 62
   255
 39
0.200
  6
CONTINUOUS
 10
27.32200
 20
169.18300
 30
 0
 11
27.32200
 21
169.18300
  0
LINE
  8
Gravur
 62
   255
 39
0.200
  6
CONTINUOUS
 10
25.89800
 20
171.64900
 30
 0
 11
25.89800
 21
171.64900
  0
LINE
  8
Gravur
 62
   255
 39
0.200
  6
CONTINUOUS
 10
25.89800
 20
171.64900
 30
 0
 11
30.14000
 21
175.89100
  0
LINE
  8
Gravur
 62
   255
 39
0.200
  6
CONTINUOUS
 10
24.98500
 20
178.86700
 30
 0
 11
23.43200
 21
173.07300
  0
LINE
  8
Gravur
 62
   255
 39
0.200
  6
CONTINUOUS
 10
23.43200
 20
173.07300
 30
 0
 11
23.43200
 21
173.07300
  0
LINE
  8
Gravur
 62
   255
 39
0.200
  6
CONTINUOUS
 10
20.58500
 20
173.07300
 30
 0
 11
20.58500
 21
173.07300
  0
LINE
  8
Gravur
 62
   255
 39
0.200
  6
CONTINUOUS
 10
20.58500
 20
173.07300
 30
 0
 11
19.03200
 21
178.86700
  0
LINE
  8
Gravur
 62
   255
 39
0.200
  6
CONTINUOUS
 10
13.87700
 20
175.89100
 30
 0
 11
18.11900
 21
171.64900
  0
LINE
  8
Gravur
 62
   255
 39
0.200
  6
CONTINUOUS
 10
18.11900
 20
171.64900
 30
 0
 11
18.11900
 21
171.64900
  0
LINE
  8
Gravur
 62
   255
 39
0.200
  6
CONTINUOUS
 10
16.69600
 20
169.18300
 30
 0
 11
16.69600
 21
169.18300
  0
LINE
  8
Gravur
 62
   255
 39
0.200
  6
CONTINUOUS
 10
16.69600
 20
169.18300
 30
 0
 11
10.90100
 21
170.73600
  0
LINE
  8
Gravur
 62
   255
 39
0.200
  6
CONTINUOUS
 10
10.90100
 20
164.78300
 30
 0
 11
16.69600
 21
166.33600
  0
LINE
  8
Gravur
 62
   255
 39
0.200
  6
CONTINUOUS
 10
16.69600
 20
166.33600
 30
 0
 11
16.69600
 21
166.33600
  0
LINE
  8
Gravur
 62
   255
 39
0.200
  6
CONTINUOUS
 10
18.11900
 20
163.87000
 30
 0
 11
18.11900
 21
163.87000
  0
LINE
  8
Gravur
 62
   255
 39
0.200
  6
CONTINUOUS
 10
18.11900
 20
163.87000
 30
 0
 11
13.87700
 21
159.62800
  0
LINE
  8
Gravur
 62
   255
 39
0.400
  6
CONTINUOUS
 10
20.75800
 20
137.76600
 30
 0
 11
23.25800
 21
137.76600
  0
LINE
  8
Gravur
 62
   255
 39
0.400
  6
CONTINUOUS
 10
22.00800
 20
139.01600
 30
 0
 11
22.00800
 21
136.51600
  0
LINE
  8
Gravur
 62
   255
 39
0.400
  6
CONTINUOUS
 10
16.25800
 20
127.80600
 30
 0
 11
19.25700
 21
133.00200
  0
LINE
  8
Gravur
 62
   255
 39
0.400
  6
CONTINUOUS
 10
19.25700
 20
133.00200
 30
 0
 11
19.25800
 21
133.00200
  0
LINE
  8
Gravur
 62
   255
 39
0.400
  6
CONTINUOUS
 10
27.75800
 20
127.80600
 30
 0
 11
24.75800
 21
133.00200
  0
LINE
  8
Gravur
 62
   255
 39
0.400
  6
CONTINUOUS
 10
24.75800
 20
133.00200
 30
 0
 11
24.75800
 21
133.00200
  0
LINE
  8
Gravur
 62
   255
 39
0.400
  6
CONTINUOUS
 10
26.77100
 20
135.01500
 30
 0
 11
26.77100
 21
135.01500
  0
LINE
  8
Gravur
 62
   255
 39
0.400
  6
CONTINUOUS
 10
26.77100
 20
135.01500
 30
 0
 11
31.96700
 21
132.01500
  0
LINE
  8
Gravur
 62
   255
 39
0.400
  6
CONTINUOUS
 10
33.50800
 20
137.76600
 30
 0
 11
27.50800
 21
137.76600
  0
LINE
  8
Gravur
 62
   255
 39
0.400
  6
CONTINUOUS
 10
27.50800
 20
137.76600
 30
 0
 11
27.50800
 21
137.76600
  0
LINE
  8
Gravur
 62
   255
 39
0.400
  6
CONTINUOUS
 10
26.77100
 20
140.51600
 30
 0
 11
26.77100
 21
140.51600
  0
LINE
  8
Gravur
 62
   255
 39
0.400
  6
CONTINUOUS
 10
26.77100
 20
140.51600
 30
 0
 11
31.96700
 21
143.51600
  0
LINE
  8
Gravur
 62
   255
 39
0.400
  6
CONTINUOUS
 10
27.75700
 20
147.72500
 30
 0
 11
24.75800
 21
142.52900
  0
LINE
  8
Gravur
 62
   255
 39
0.400
  6
CONTINUOUS
 10
24.75800
 20
142.52900
 30
 0
 11
24.75700
 21
142.52900
  0
LINE
  8
Gravur
 62
   255
 39
0.400
  6
CONTINUOUS
 10
22.00800
 20
143.26600
 30
 0
 11
22.00800
 21
143.26600
  0
LINE
  8
Gravur
 62
   255
 39
0.400
  6
CONTINUOUS
 10
22.00800
 20
143.26600
 30
 0
 11
22.00800
 21
149.26600
  0
LINE
  8
Gravur
 62
   255
 39
0.400
  6
CONTINUOUS
 10
16.25800
 20
147.72500
 30
 0
 11
19.25800
 21
142.52900
  0
LINE
  8
Gravur
 62
   255
 39
0.400
  6
CONTINUOUS
 10
19.25800
 20
142.52900
 30
 0
 11
19.25800
 21
142.52900
  0
LINE
  8
Gravur
 62
   255
 39
0.400
  6
CONTINUOUS
 10
17.24400
 20
140.51500
 30
 0
 11
17.24400
 21
140.51600
  0
LINE
  8
Gravur
 62
   255
 39
0.400
  6
CONTINUOUS
 10
17.24400
 20
140.51600
 30
 0
 11
12.04800
 21
143.51500
  0
LINE
  8
Gravur
 62
   255
 39
0.400
  6
CONTINUOUS
 10
10.50800
 20
137.76600
 30
 0
 11
16.50800
 21
137.76600
  0
LINE
  8
Gravur
 62
   255
 39
0.400
  6
CONTINUOUS
 10
16.50800
 20
137.76600
 30
 0
 11
16.50800
 21
137.76600
  0
LINE
  8
Gravur
 62
   255
 39
0.400
  6
CONTINUOUS
 10
17.24400
 20
135.01600
 30
 0
 11
17.24400
 21
135.01600
  0
LINE
  8
Gravur
 62
   255
 39
0.400
  6
CONTINUOUS
 10
17.24400
 20
135.01600
 30
 0
 11
12.04800
 21
132.01600
  0
LINE
  8
Gravur
 62
   255
 39
0.200
  6
CONTINUOUS
 10
9.87500
 20
145.21000
 30
 0
 11
9.88400
 21
145.28100
  0
LINE
  8
Gravur
 62
   255
 39
0.200
  6
CONTINUOUS
 10
9.88400
 20
145.28100
 30
 0
 11
9.90300
 21
145.35000
  0
LINE
  8
Gravur
 62
   255
 39
0.200
  6
CONTINUOUS
 10
9.90300
 20
145.35000
 30
 0
 11
9.93000
 21
145.41500
  0
LINE
  8
Gravur
 62
   255
 39
0.200
  6
CONTINUOUS
 10
9.93000
 20
145.41500
 30
 0
 11
9.96500
 21
145.47500
  0
LINE
  8
Gravur
 62
   255
 39
0.200
  6
CONTINUOUS
 10
9.96500
 20
145.47500
 30
 0
 11
10.00800
 21
145.52800
  0
LINE
  8
Gravur
 62
   255
 39
0.200
  6
CONTINUOUS
 10
10.00800
 20
145.52800
 30
 0
 11
10.05700
 21
145.57400
  0
LINE
  8
Gravur
 62
   255
 39
0.200
  6
CONTINUOUS
 10
10.05700
 20
145.57400
 30
 0
 11
10.11200
 21
145.61200
  0
LINE
  8
Gravur
 62
   255
 39
0.200
  6
CONTINUOUS
 10
10.11200
 20
145.61200
 30
 0
 11
10.17200
 21
145.64000
  0
LINE
  8
Gravur
 62
   255
 39
0.200
  6
CONTINUOUS
 10
10.17200
 20
145.64000
 30
 0
 11
10.23400
 21
145.65900
  0
LINE
  8
Gravur
 62
   255
 39
0.200
  6
CONTINUOUS
 10
10.23400
 20
145.65900
 30
 0
 11
10.29800
 21
145.66700
  0
LINE
  8
Gravur
 62
   255
 39
0.200
  6
CONTINUOUS
 10
10.29800
 20
145.66700
 30
 0
 11
10.36300
 21
145.66500
  0
LINE
  8
Gravur
 62
   255
 39
0.200
  6
CONTINUOUS
 10
10.36300
 20
145.66500
 30
 0
 11
10.42700
 21
145.65200
  0
LINE
  8
Gravur
 62
   255
 39
0.200
  6
CONTINUOUS
 10
10.42700
 20
145.65200
 30
 0
 11
10.43300
 21
145.65000
  0
LINE
  8
Gravur
 62
   255
 39
0.200
  6
CONTINUOUS
 10
10.43300
 20
145.65000
 30
 0
 11
10.50000
 21
145.62400
  0
LINE
  8
Gravur
 62
   255
 39
0.200
  6
CONTINUOUS
 10
10.50000
 20
145.62400
 30
 0
 11
10.56300
 21
145.58600
  0
LINE
  8
Gravur
 62
   255
 39
0.200
  6
CONTINUOUS
 10
10.56300
 20
145.58600
 30
 0
 11
10.62100
 21
145.53900
  0
LINE
  8
Gravur
 62
   255
 39
0.200
  6
CONTINUOUS
 10
10.62100
 20
145.53900
 30
 0
 11
10.67100
 21
145.48300
  0
LINE
  8
Gravur
 62
   255
 39
0.200
  6
CONTINUOUS
 10
10.67100
 20
145.48300
 30
 0
 11
10.71400
 21
145.41900
  0
LINE
  8
Gravur
 62
   255
 39
0.200
  6
CONTINUOUS
 10
10.71400
 20
145.41900
 30
 0
 11
10.74700
 21
145.34800
  0
LINE
  8
Gravur
 62
   255
 39
0.200
  6
CONTINUOUS
 10
10.74700
 20
145.34800
 30
 0
 11
10.77000
 21
145.27300
  0
LINE
  8
Gravur
 62
   255
 39
0.200
  6
CONTINUOUS
 10
10.77000
 20
145.27300
 30
 0
 11
10.78300
 21
145.19500
  0
LINE
  8
Gravur
 62
   255
 39
0.200
  6
CONTINUOUS
 10
10.78300
 20
145.19500
 30
 0
 11
10.78600
 21
145.11600
  0
LINE
  8
Gravur
 62
   255
 39
0.200
  6
CONTINUOUS
 10
10.78600
 20
145.11600
 30
 0
 11
10.77800
 21
145.03700
  0
LINE
  8
Gravur
 62
   255
 39
0.200
  6
CONTINUOUS
 10
10.77800
 20
145.03700
 30
 0
 11
10.75900
 21
144.96000
  0
LINE
  8
Gravur
 62
   255
 39
0.200
  6
CONTINUOUS
 10
10.75900
 20
144.96000
 30
 0
 11
10.73000
 21
144.88700
  0
LINE
  8
Gravur
 62
   255
 39
0.200
  6
CONTINUOUS
 10
10.73000
 20
144.88700
 30
 0
 11
10.69200
 21
144.82000
  0
LINE
  8
Gravur
 62
   255
 39
0.200
  6
CONTINUOUS
 10
10.69200
 20
144.82000
 30
 0
 11
10.64500
 21
144.76000
  0
LINE
  8
Gravur
 62
   255
 39
0.200
  6
CONTINUOUS
 10
10.64500
 20
144.76000
 30
 0
 11
10.59000
 21
144.70900
  0
LINE
  8
Gravur
 62
   255
 39
0.200
  6
CONTINUOUS
 10
10.59000
 20
144.70900
 30
 0
 11
10.53000
 21
144.66600
  0
LINE
  8
Gravur
 62
   255
 39
0.200
  6
CONTINUOUS
 10
10.53000
 20
144.66600
 30
 0
 11
10.46400
 21
144.63500
  0
LINE
  8
Gravur
 62
   255
 39
0.200
  6
CONTINUOUS
 10
10.46400
 20
144.63500
 30
 0
 11
10.39500
 21
144.61500
  0
LINE
  8
Gravur
 62
   255
 39
0.200
  6
CONTINUOUS
 10
10.39500
 20
144.61500
 30
 0
 11
10.32400
 21
144.60600
  0
LINE
  8
Gravur
 62
   255
 39
0.200
  6
CONTINUOUS
 10
10.32400
 20
144.60600
 30
 0
 11
10.25300
 21
144.60900
  0
LINE
  8
Gravur
 62
   255
 39
0.200
  6
CONTINUOUS
 10
10.25300
 20
144.60900
 30
 0
 11
10.25300
 21
144.61000
  0
LINE
  8
Gravur
 62
   255
 39
0.200
  6
CONTINUOUS
 10
10.25300
 20
144.61000
 30
 0
 11
10.34100
 21
144.61500
  0
LINE
  8
Gravur
 62
   255
 39
0.200
  6
CONTINUOUS
 10
10.34100
 20
144.61500
 30
 0
 11
10.42800
 21
144.60500
  0
LINE
  8
Gravur
 62
   255
 39
0.200
  6
CONTINUOUS
 10
10.42800
 20
144.60500
 30
 0
 11
10.51400
 21
144.58100
  0
LINE
  8
Gravur
 62
   255
 39
0.200
  6
CONTINUOUS
 10
10.51400
 20
144.58100
 30
 0
 11
10.59600
 21
144.54300
  0
LINE
  8
Gravur
 62
   255
 39
0.200
  6
CONTINUOUS
 10
10.59600
 20
144.54300
 30
 0
 11
10.67000
 21
144.49100
  0
LINE
  8
Gravur
 62
   255
 39
0.200
  6
CONTINUOUS
 10
10.67000
 20
144.49100
 30
 0
 11
10.73800
 21
144.42800
  0
LINE
  8
Gravur
 62
   255
 39
0.200
  6
CONTINUOUS
 10
10.73800
 20
144.42800
 30
 0
 11
10.79600
 21
144.35500
  0
LINE
  8
Gravur
 62
   255
 39
0.200
  6
CONTINUOUS
 10
10.79600
 20
144.35500
 30
 0
 11
10.84400
 21
144.27200
  0
LINE
  8
Gravur
 62
   255
 39
0.200
  6
CONTINUOUS
 10
10.84400
 20
144.27200
 30
 0
 11
10.88000
 21
144.18300
  0
LINE
  8
Gravur
 62
   255
 39
0.200
  6
CONTINUOUS
 10
10.88000
 20
144.18300
 30
 0
 11
10.90400
 21
144.08800
  0
LINE
  8
Gravur
 62
   255
 39
0.200
  6
CONTINUOUS
 10
10.90400
 20
144.08800
 30
 0
 11
10.91400
 21
143.99100
  0
LINE
  8
Gravur
 62
   255
 39
0.200
  6
CONTINUOUS
 10
10.91400
 20
143.99100
 30
 0
 11
10.91300
 21
143.89300
  0
LINE
  8
Gravur
 62
   255
 39
0.200
  6
CONTINUOUS
 10
10.91300
 20
143.89300
 30
 0
 11
10.89600
 21
143.79700
  0
LINE
  8
Gravur
 62
   255
 39
0.200
  6
CONTINUOUS
 10
10.89600
 20
143.79700
 30
 0
 11
10.86800
 21
143.70400
  0
LINE
  8
Gravur
 62
   255
 39
0.200
  6
CONTINUOUS
 10
10.86800
 20
143.70400
 30
 0
 11
10.82800
 21
143.61700
  0
LINE
  8
Gravur
 62
   255
 39
0.200
  6
CONTINUOUS
 10
10.82800
 20
143.61700
 30
 0
 11
10.77600
 21
143.53700
  0
LINE
  8
Gravur
 62
   255
 39
0.200
  6
CONTINUOUS
 10
10.77600
 20
143.53700
 30
 0
 11
10.71500
 21
143.46700
  0
LINE
  8
Gravur
 62
   255
 39
0.200
  6
CONTINUOUS
 10
10.71500
 20
143.46700
 30
 0
 11
10.64400
 21
143.40900
  0
LINE
  8
Gravur
 62
   255
 39
0.200
  6
CONTINUOUS
 10
10.64400
 20
143.40900
 30
 0
 11
10.56600
 21
143.36200
  0
LINE
  8
Gravur
 62
   255
 39
0.200
  6
CONTINUOUS
 10
10.56600
 20
143.36200
 30
 0
 11
10.48700
 21
143.33000
  0
LINE
  8
Gravur
 62
   255
 39
0.200
  6
CONTINUOUS
 10
10.48700
 20
143.33000
 30
 0
 11
10.41300
 21
143.31200
  0
LINE
  8
Gravur
 62
   255
 39
0.200
  6
CONTINUOUS
 10
10.41300
 20
143.31200
 30
 0
 11
10.33700
 21
143.30600
  0
LINE
  8
Gravur
 62
   255
 39
0.200
  6
CONTINUOUS
 10
10.33700
 20
143.30600
 30
 0
 11
10.26200
 21
143.31200
  0
LINE
  8
Gravur
 62
   255
 39
0.200
  6
CONTINUOUS
 10
10.26200
 20
143.31200
 30
 0
 11
10.18800
 21
143.33100
  0
LINE
  8
Gravur
 62
   255
 39
0.200
  6
CONTINUOUS
 10
10.18800
 20
143.33100
 30
 0
 11
10.11700
 21
143.36100
  0
LINE
  8
Gravur
 62
   255
 39
0.200
  6
CONTINUOUS
 10
10.11700
 20
143.36100
 30
 0
 11
10.05100
 21
143.40200
  0
LINE
  8
Gravur
 62
   255
 39
0.200
  6
CONTINUOUS
 10
10.05100
 20
143.40200
 30
 0
 11
9.99100
 21
143.45300
  0
LINE
  8
Gravur
 62
   255
 39
0.200
  6
CONTINUOUS
 10
9.99100
 20
143.45300
 30
 0
 11
9.93900
 21
143.51400
  0
LINE
  8
Gravur
 62
   255
 39
0.200
  6
CONTINUOUS
 10
9.93900
 20
143.51400
 30
 0
 11
9.89500
 21
143.58200
  0
LINE
  8
Gravur
 62
   255
 39
0.200
  6
CONTINUOUS
 10
9.89500
 20
143.58200
 30
 0
 11
9.85900
 21
143.65700
  0
LINE
  8
Gravur
 62
   255
 39
0.200
  6
CONTINUOUS
 10
9.85900
 20
143.65700
 30
 0
 11
9.83500
 21
143.73700
  0
LINE
  8
Gravur
 62
   255
 39
0.200
  6
CONTINUOUS
 10
9.83500
 20
143.73700
 30
 0
 11
9.82200
 21
143.81900
  0
LINE
  8
Gravur
 62
   255
 39
0.200
  6
CONTINUOUS
 10
9.82200
 20
143.81900
 30
 0
 11
9.82100
 21
143.83000
  0
LINE
  8
Gravur
 62
   255
 39
0.400
  6
CONTINUOUS
 10
17.72400
 20
150.61800
 30
 0
 11
17.72400
 21
153.41800
  0
LINE
  8
Gravur
 62
   255
 39
0.400
  6
CONTINUOUS
 10
17.72400
 20
153.41800
 30
 0
 11
18.22800
 21
153.41800
  0
LINE
  8
Gravur
 62
   255
 39
0.400
  6
CONTINUOUS
 10
18.22800
 20
153.41800
 30
 0
 11
18.32000
 21
153.41100
  0
LINE
  8
Gravur
 62
   255
 39
0.400
  6
CONTINUOUS
 10
18.32000
 20
153.41100
 30
 0
 11
18.41000
 21
153.38900
  0
LINE
  8
Gravur
 62
   255
 39
0.400
  6
CONTINUOUS
 10
18.41000
 20
153.38900
 30
 0
 11
18.49500
 21
153.35300
  0
LINE
  8
Gravur
 62
   255
 39
0.400
  6
CONTINUOUS
 10
18.49500
 20
153.35300
 30
 0
 11
18.57600
 21
153.30300
  0
LINE
  8
Gravur
 62
   255
 39
0.400
  6
CONTINUOUS
 10
18.57600
 20
153.30300
 30
 0
 11
18.64900
 21
153.24100
  0
LINE
  8
Gravur
 62
   255
 39
0.400
  6
CONTINUOUS
 10
18.64900
 20
153.24100
 30
 0
 11
18.71300
 21
153.16800
  0
LINE
  8
Gravur
 62
   255
 39
0.400
  6
CONTINUOUS
 10
18.71300
 20
153.16800
 30
 0
 11
18.76600
 21
153.08500
  0
LINE
  8
Gravur
 62
   255
 39
0.400
  6
CONTINUOUS
 10
18.76600
 20
153.08500
 30
 0
 11
18.80800
 21
152.99400
  0
LINE
  8
Gravur
 62
   255
 39
0.400
  6
CONTINUOUS
 10
18.80800
 20
152.99400
 30
 0
 11
18.83800
 21
152.89700
  0
LINE
  8
Gravur
 62
   255
 39
0.400
  6
CONTINUOUS
 10
18.83800
 20
152.89700
 30
 0
 11
18.85400
 21
152.79700
  0
LINE
  8
Gravur
 62
   255
 39
0.400
  6
CONTINUOUS
 10
18.85400
 20
152.79700
 30
 0
 11
18.85800
 21
152.71800
  0
LINE
  8
Gravur
 62
   255
 39
0.400
  6
CONTINUOUS
 10
18.85800
 20
152.71800
 30
 0
 11
18.85800
 21
151.31800
  0
LINE
  8
Gravur
 62
   255
 39
0.400
  6
CONTINUOUS
 10
18.85800
 20
151.31800
 30
 0
 11
18.85200
 21
151.21600
  0
LINE
  8
Gravur
 62
   255
 39
0.400
  6
CONTINUOUS
 10
18.85200
 20
151.21600
 30
 0
 11
18.83200
 21
151.11600
  0
LINE
  8
Gravur
 62
   255
 39
0.400
  6
CONTINUOUS
 10
18.83200
 20
151.11600
 30
 0
 11
18.79900
 21
151.02100
  0
LINE
  8
Gravur
 62
   255
 39
0.400
  6
CONTINUOUS
 10
18.79900
 20
151.02100
 30
 0
 11
18.75400
 21
150.93100
  0
LINE
  8
Gravur
 62
   255
 39
0.400
  6
CONTINUOUS
 10
18.75400
 20
150.93100
 30
 0
 11
18.69900
 21
150.85000
  0
LINE
  8
Gravur
 62
   255
 39
0.400
  6
CONTINUOUS
 10
18.69900
 20
150.85000
 30
 0
 11
18.63300
 21
150.77900
  0
LINE
  8
Gravur
 62
   255
 39
0.400
  6
CONTINUOUS
 10
18.63300
 20
150.77900
 30
 0
 11
18.55800
 21
150.72000
  0
LINE
  8
Gravur
 62
   255
 39
0.400
  6
CONTINUOUS
 10
18.55800
 20
150.72000
 30
 0
 11
18.47600
 21
150.67300
  0
LINE
  8
Gravur
 62
   255
 39
0.400
  6
CONTINUOUS
 10
18.47600
 20
150.67300
 30
 0
 11
18.38900
 21
150.64000
  0
LINE
  8
Gravur
 62
   255
 39
0.400
  6
CONTINUOUS
 10
18.38900
 20
150.64000
 30
 0
 11
18.29900
 21
150.62200
  0
LINE
  8
Gravur
 62
   255
 39
0.400
  6
CONTINUOUS
 10
18.29900
 20
150.62200
 30
 0
 11
18.22800
 21
150.61800
  0
LINE
  8
Gravur
 62
   255
 39
0.400
  6
CONTINUOUS
 10
18.22800
 20
150.61800
 30
 0
 11
17.72400
 21
150.61800
  0
LINE
  8
Gravur
 62
   255
 39
0.400
  6
CONTINUOUS
 10
20.70600
 20
153.41800
 30
 0
 11
19.57200
 21
153.41800
  0
LINE
  8
Gravur
 62
   255
 39
0.400
  6
CONTINUOUS
 10
19.57200
 20
153.41800
 30
 0
 11
19.57200
 21
150.61800
  0
LINE
  8
Gravur
 62
   255
 39
0.400
  6
CONTINUOUS
 10
19.57200
 20
150.61800
 30
 0
 11
20.70600
 21
150.61800
  0
LINE
  8
Gravur
 62
   255
 39
0.400
  6
CONTINUOUS
 10
19.57200
 20
152.01800
 30
 0
 11
20.51700
 21
152.01800
  0
LINE
  8
Gravur
 62
   255
 39
0.400
  6
CONTINUOUS
 10
21.39900
 20
152.01800
 30
 0
 11
21.96600
 21
152.01800
  0
LINE
  8
Gravur
 62
   255
 39
0.400
  6
CONTINUOUS
 10
21.96600
 20
152.01800
 30
 0
 11
22.05900
 21
152.02600
  0
LINE
  8
Gravur
 62
   255
 39
0.400
  6
CONTINUOUS
 10
22.05900
 20
152.02600
 30
 0
 11
22.15100
 21
152.04900
  0
LINE
  8
Gravur
 62
   255
 39
0.400
  6
CONTINUOUS
 10
22.15100
 20
152.04900
 30
 0
 11
22.23900
 21
152.08700
  0
LINE
  8
Gravur
 62
   255
 39
0.400
  6
CONTINUOUS
 10
22.23900
 20
152.08700
 30
 0
 11
22.32000
 21
152.14000
  0
LINE
  8
Gravur
 62
   255
 39
0.400
  6
CONTINUOUS
 10
22.32000
 20
152.14000
 30
 0
 11
22.39400
 21
152.20500
  0
LINE
  8
Gravur
 62
   255
 39
0.400
  6
CONTINUOUS
 10
22.39400
 20
152.20500
 30
 0
 11
22.45800
 21
152.28200
  0
LINE
  8
Gravur
 62
   255
 39
0.400
  6
CONTINUOUS
 10
22.45800
 20
152.28200
 30
 0
 11
22.51100
 21
152.36800
  0
LINE
  8
Gravur
 62
   255
 39
0.400
  6
CONTINUOUS
 10
22.51100
 20
152.36800
 30
 0
 11
22.55300
 21
152.46200
  0
LINE
  8
Gravur
 62
   255
 39
0.400
  6
CONTINUOUS
 10
22.55300
 20
152.46200
 30
 0
 11
22.58000
 21
152.56200
  0
LINE
  8
Gravur
 62
   255
 39
0.400
  6
CONTINUOUS
 10
22.58000
 20
152.56200
 30
 0
 11
22.59400
 21
152.66600
  0
LINE
  8
Gravur
 62
   255
 39
0.400
  6
CONTINUOUS
 10
22.59400
 20
152.66600
 30
 0
 11
22.59400
 21
152.77000
  0
LINE
  8
Gravur
 62
   255
 39
0.400
  6
CONTINUOUS
 10
22.59400
 20
152.77000
 30
 0
 11
22.58000
 21
152.87400
  0
LINE
  8
Gravur
 62
   255
 39
0.400
  6
CONTINUOUS
 10
22.58000
 20
152.87400
 30
 0
 11
22.55300
 21
152.97400
  0
LINE
  8
Gravur
 62
   255
 39
0.400
  6
CONTINUOUS
 10
22.55300
 20
152.97400
 30
 0
 11
22.51100
 21
153.06800
  0
LINE
  8
Gravur
 62
   255
 39
0.400
  6
CONTINUOUS
 10
22.51100
 20
153.06800
 30
 0
 11
22.45800
 21
153.15400
  0
LINE
  8
Gravur
 62
   255
 39
0.400
  6
CONTINUOUS
 10
22.45800
 20
153.15400
 30
 0
 11
22.39400
 21
153.23100
  0
LINE
  8
Gravur
 62
   255
 39
0.400
  6
CONTINUOUS
 10
22.39400
 20
153.23100
 30
 0
 11
22.32000
 21
153.29600
  0
LINE
  8
Gravur
 62
   255
 39
0.400
  6
CONTINUOUS
 10
22.32000
 20
153.29600
 30
 0
 11
22.23900
 21
153.34900
  0
LINE
  8
Gravur
 62
   255
 39
0.400
  6
CONTINUOUS
 10
22.23900
 20
153.34900
 30
 0
 11
22.15100
 21
153.38700
  0
LINE
  8
Gravur
 62
   255
 39
0.400
  6
CONTINUOUS
 10
22.15100
 20
153.38700
 30
 0
 11
22.05900
 21
153.41000
  0
LINE
  8
Gravur
 62
   255
 39
0.400
  6
CONTINUOUS
 10
22.05900
 20
153.41000
 30
 0
 11
21.96600
 21
153.41800
  0
LINE
  8
Gravur
 62
   255
 39
0.400
  6
CONTINUOUS
 10
21.96600
 20
153.41800
 30
 0
 11
21.96600
 21
153.41800
  0
LINE
  8
Gravur
 62
   255
 39
0.400
  6
CONTINUOUS
 10
21.96600
 20
153.41800
 30
 0
 11
21.39900
 21
153.41800
  0
LINE
  8
Gravur
 62
   255
 39
0.400
  6
CONTINUOUS
 10
21.39900
 20
153.41800
 30
 0
 11
21.39900
 21
150.61800
  0
LINE
  8
Gravur
 62
   255
 39
0.400
  6
CONTINUOUS
 10
23.30900
 20
153.41800
 30
 0
 11
24.44300
 21
153.41800
  0
LINE
  8
Gravur
 62
   255
 39
0.400
  6
CONTINUOUS
 10
24.44300
 20
153.41800
 30
 0
 11
23.87600
 21
153.41800
  0
LINE
  8
Gravur
 62
   255
 39
0.400
  6
CONTINUOUS
 10
23.87600
 20
153.41800
 30
 0
 11
23.87600
 21
150.61800
  0
LINE
  8
Gravur
 62
   255
 39
0.400
  6
CONTINUOUS
 10
25.15800
 20
153.41800
 30
 0
 11
25.15800
 21
150.61800
  0
LINE
  8
Gravur
 62
   255
 39
0.400
  6
CONTINUOUS
 10
25.15800
 20
152.01800
 30
 0
 11
26.29200
 21
152.01800
  0
LINE
  8
Gravur
 62
   255
 39
0.400
  6
CONTINUOUS
 10
26.29200
 20
150.61800
 30
 0
 11
26.29200
 21
153.41800
  0
LINE
  8
Gravur
 62
   255
 39
0.200
  6
CONTINUOUS
 10
27.85000
 20
126.48200
 30
 0
 11
28.33600
 21
127.08200
  0
LINE
  8
Gravur
 62
   255
 39
0.200
  6
CONTINUOUS
 10
28.33600
 20
127.08200
 30
 0
 11
28.33600
 21
124.68200
  0
LINE
  8
Gravur
 62
   255
 39
0.200
  6
CONTINUOUS
 10
28.94800
 20
125.22200
 30
 0
 11
28.95300
 21
125.14200
  0
LINE
  8
Gravur
 62
   255
 39
0.200
  6
CONTINUOUS
 10
28.95300
 20
125.14200
 30
 0
 11
28.97000
 21
125.06300
  0
LINE
  8
Gravur
 62
   255
 39
0.200
  6
CONTINUOUS
 10
28.97000
 20
125.06300
 30
 0
 11
28.99600
 21
124.98800
  0
LINE
  8
Gravur
 62
   255
 39
0.200
  6
CONTINUOUS
 10
28.99600
 20
124.98800
 30
 0
 11
29.03300
 21
124.91800
  0
LINE
  8
Gravur
 62
   255
 39
0.200
  6
CONTINUOUS
 10
29.03300
 20
124.91800
 30
 0
 11
29.07800
 21
124.85500
  0
LINE
  8
Gravur
 62
   255
 39
0.200
  6
CONTINUOUS
 10
29.07800
 20
124.85500
 30
 0
 11
29.13100
 21
124.80000
  0
LINE
  8
Gravur
 62
   255
 39
0.200
  6
CONTINUOUS
 10
29.13100
 20
124.80000
 30
 0
 11
29.19100
 21
124.75400
  0
LINE
  8
Gravur
 62
   255
 39
0.200
  6
CONTINUOUS
 10
29.19100
 20
124.75400
 30
 0
 11
29.25700
 21
124.71900
  0
LINE
  8
Gravur
 62
   255
 39
0.200
  6
CONTINUOUS
 10
29.25700
 20
124.71900
 30
 0
 11
29.32600
 21
124.69600
  0
LINE
  8
Gravur
 62
   255
 39
0.200
  6
CONTINUOUS
 10
29.32600
 20
124.69600
 30
 0
 11
29.39800
 21
124.68400
  0
LINE
  8
Gravur
 62
   255
 39
0.200
  6
CONTINUOUS
 10
29.39800
 20
124.68400
 30
 0
 11
29.47000
 21
124.68400
  0
LINE
  8
Gravur
 62
   255
 39
0.200
  6
CONTINUOUS
 10
29.47000
 20
124.68400
 30
 0
 11
29.54200
 21
124.69600
  0
LINE
  8
Gravur
 62
   255
 39
0.200
  6
CONTINUOUS
 10
29.54200
 20
124.69600
 30
 0
 11
29.61100
 21
124.71900
  0
LINE
  8
Gravur
 62
   255
 39
0.200
  6
CONTINUOUS
 10
29.61100
 20
124.71900
 30
 0
 11
29.67700
 21
124.75400
  0
LINE
  8
Gravur
 62
   255
 39
0.200
  6
CONTINUOUS
 10
29.67700
 20
124.75400
 30
 0
 11
29.73700
 21
124.80000
  0
LINE
  8
Gravur
 62
   255
 39
0.200
  6
CONTINUOUS
 10
29.73700
 20
124.80000
 30
 0
 11
29.79000
 21
124.85500
  0
LINE
  8
Gravur
 62
   255
 39
0.200
  6
CONTINUOUS
 10
29.79000
 20
124.85500
 30
 0
 11
29.83500
 21
124.91800
  0
LINE
  8
Gravur
 62
   255
 39
0.200
  6
CONTINUOUS
 10
29.83500
 20
124.91800
 30
 0
 11
29.87200
 21
124.98800
  0
LINE
  8
Gravur
 62
   255
 39
0.200
  6
CONTINUOUS
 10
29.87200
 20
124.98800
 30
 0
 11
29.89800
 21
125.06300
  0
LINE
  8
Gravur
 62
   255
 39
0.200
  6
CONTINUOUS
 10
29.89800
 20
125.06300
 30
 0
 11
29.91500
 21
125.14200
  0
LINE
  8
Gravur
 62
   255
 39
0.200
  6
CONTINUOUS
 10
29.91500
 20
125.14200
 30
 0
 11
29.92000
 21
125.22200
  0
LINE
  8
Gravur
 62
   255
 39
0.200
  6
CONTINUOUS
 10
29.92000
 20
125.22200
 30
 0
 11
29.92000
 21
125.22200
  0
LINE
  8
Gravur
 62
   255
 39
0.200
  6
CONTINUOUS
 10
29.92000
 20
125.22200
 30
 0
 11
29.92000
 21
126.54200
  0
LINE
  8
Gravur
 62
   255
 39
0.200
  6
CONTINUOUS
 10
29.92000
 20
126.54200
 30
 0
 11
29.91500
 21
126.62200
  0
LINE
  8
Gravur
 62
   255
 39
0.200
  6
CONTINUOUS
 10
29.91500
 20
126.62200
 30
 0
 11
29.89800
 21
126.70100
  0
LINE
  8
Gravur
 62
   255
 39
0.200
  6
CONTINUOUS
 10
29.89800
 20
126.70100
 30
 0
 11
29.87200
 21
126.77600
  0
LINE
  8
Gravur
 62
   255
 39
0.200
  6
CONTINUOUS
 10
29.87200
 20
126.77600
 30
 0
 11
29.83500
 21
126.84600
  0
LINE
  8
Gravur
 62
   255
 39
0.200
  6
CONTINUOUS
 10
29.83500
 20
126.84600
 30
 0
 11
29.79000
 21
126.90900
  0
LINE
  8
Gravur
 62
   255
 39
0.200
  6
CONTINUOUS
 10
29.79000
 20
126.90900
 30
 0
 11
29.73700
 21
126.96400
  0
LINE
  8
Gravur
 62
   255
 39
0.200
  6
CONTINUOUS
 10
29.73700
 20
126.96400
 30
 0
 11
29.67700
 21
127.01000
  0
LINE
  8
Gravur
 62
   255
 39
0.200
  6
CONTINUOUS
 10
29.67700
 20
127.01000
 30
 0
 11
29.61100
 21
127.04500
  0
LINE
  8
Gravur
 62
   255
 39
0.200
  6
CONTINUOUS
 10
29.61100
 20
127.04500
 30
 0
 11
29.54200
 21
127.06800
  0
LINE
  8
Gravur
 62
   255
 39
0.200
  6
CONTINUOUS
 10
29.54200
 20
127.06800
 30
 0
 11
29.47000
 21
127.08000
  0
LINE
  8
Gravur
 62
   255
 39
0.200
  6
CONTINUOUS
 10
29.47000
 20
127.08000
 30
 0
 11
29.39800
 21
127.08000
  0
LINE
  8
Gravur
 62
   255
 39
0.200
  6
CONTINUOUS
 10
29.39800
 20
127.08000
 30
 0
 11
29.32600
 21
127.06800
  0
LINE
  8
Gravur
 62
   255
 39
0.200
  6
CONTINUOUS
 10
29.32600
 20
127.06800
 30
 0
 11
29.25700
 21
127.04500
  0
LINE
  8
Gravur
 62
   255
 39
0.200
  6
CONTINUOUS
 10
29.25700
 20
127.04500
 30
 0
 11
29.19100
 21
127.01000
  0
LINE
  8
Gravur
 62
   255
 39
0.200
  6
CONTINUOUS
 10
29.19100
 20
127.01000
 30
 0
 11
29.13100
 21
126.96400
  0
LINE
  8
Gravur
 62
   255
 39
0.200
  6
CONTINUOUS
 10
29.13100
 20
126.96400
 30
 0
 11
29.07800
 21
126.90900
  0
LINE
  8
Gravur
 62
   255
 39
0.200
  6
CONTINUOUS
 10
29.07800
 20
126.90900
 30
 0
 11
29.03300
 21
126.84600
  0
LINE
  8
Gravur
 62
   255
 39
0.200
  6
CONTINUOUS
 10
29.03300
 20
126.84600
 30
 0
 11
28.99600
 21
126.77600
  0
LINE
  8
Gravur
 62
   255
 39
0.200
  6
CONTINUOUS
 10
28.99600
 20
126.77600
 30
 0
 11
28.97000
 21
126.70100
  0
LINE
  8
Gravur
 62
   255
 39
0.200
  6
CONTINUOUS
 10
28.97000
 20
126.70100
 30
 0
 11
28.95300
 21
126.62200
  0
LINE
  8
Gravur
 62
   255
 39
0.200
  6
CONTINUOUS
 10
28.95300
 20
126.62200
 30
 0
 11
28.94800
 21
126.54200
  0
LINE
  8
Gravur
 62
   255
 39
0.200
  6
CONTINUOUS
 10
28.94800
 20
126.54200
 30
 0
 11
28.94800
 21
126.54200
  0
LINE
  8
Gravur
 62
   255
 39
0.200
  6
CONTINUOUS
 10
28.94800
 20
126.54200
 30
 0
 11
28.94800
 21
125.22200
  0
LINE
  8
Gravur
 62
   255
 39
0.200
  6
CONTINUOUS
 10
33.25400
 20
130.36800
 30
 0
 11
33.25800
 21
130.28900
  0
LINE
  8
Gravur
 62
   255
 39
0.200
  6
CONTINUOUS
 10
33.25800
 20
130.28900
 30
 0
 11
33.27200
 21
130.21100
  0
LINE
  8
Gravur
 62
   255
 39
0.200
  6
CONTINUOUS
 10
33.27200
 20
130.21100
 30
 0
 11
33.29600
 21
130.13600
  0
LINE
  8
Gravur
 62
   255
 39
0.200
  6
CONTINUOUS
 10
33.29600
 20
130.13600
 30
 0
 11
33.33100
 21
130.06700
  0
LINE
  8
Gravur
 62
   255
 39
0.200
  6
CONTINUOUS
 10
33.33100
 20
130.06700
 30
 0
 11
33.37500
 21
130.00400
  0
LINE
  8
Gravur
 62
   255
 39
0.200
  6
CONTINUOUS
 10
33.37500
 20
130.00400
 30
 0
 11
33.42600
 21
129.94800
  0
LINE
  8
Gravur
 62
   255
 39
0.200
  6
CONTINUOUS
 10
33.42600
 20
129.94800
 30
 0
 11
33.48400
 21
129.90200
  0
LINE
  8
Gravur
 62
   255
 39
0.200
  6
CONTINUOUS
 10
33.48400
 20
129.90200
 30
 0
 11
33.54700
 21
129.86700
  0
LINE
  8
Gravur
 62
   255
 39
0.200
  6
CONTINUOUS
 10
33.54700
 20
129.86700
 30
 0
 11
33.61600
 21
129.84200
  0
LINE
  8
Gravur
 62
   255
 39
0.200
  6
CONTINUOUS
 10
33.61600
 20
129.84200
 30
 0
 11
33.68600
 21
129.82800
  0
LINE
  8
Gravur
 62
   255
 39
0.200
  6
CONTINUOUS
 10
33.68600
 20
129.82800
 30
 0
 11
33.68600
 21
129.82800
  0
LINE
  8
Gravur
 62
   255
 39
0.200
  6
CONTINUOUS
 10
33.68600
 20
129.82800
 30
 0
 11
33.75300
 21
129.83600
  0
LINE
  8
Gravur
 62
   255
 39
0.200
  6
CONTINUOUS
 10
33.75300
 20
129.83600
 30
 0
 11
33.81700
 21
129.85600
  0
LINE
  8
Gravur
 62
   255
 39
0.200
  6
CONTINUOUS
 10
33.81700
 20
129.85600
 30
 0
 11
33.88000
 21
129.88500
  0
LINE
  8
Gravur
 62
   255
 39
0.200
  6
CONTINUOUS
 10
33.88000
 20
129.88500
 30
 0
 11
33.93600
 21
129.92500
  0
LINE
  8
Gravur
 62
   255
 39
0.200
  6
CONTINUOUS
 10
33.93600
 20
129.92500
 30
 0
 11
33.98700
 21
129.97400
  0
LINE
  8
Gravur
 62
   255
 39
0.200
  6
CONTINUOUS
 10
33.98700
 20
129.97400
 30
 0
 11
34.03100
 21
130.03000
  0
LINE
  8
Gravur
 62
   255
 39
0.200
  6
CONTINUOUS
 10
34.03100
 20
130.03000
 30
 0
 11
34.06700
 21
130.09300
  0
LINE
  8
Gravur
 62
   255
 39
0.200
  6
CONTINUOUS
 10
34.06700
 20
130.09300
 30
 0
 11
34.09300
 21
130.16200
  0
LINE
  8
Gravur
 62
   255
 39
0.200
  6
CONTINUOUS
 10
34.09300
 20
130.16200
 30
 0
 11
34.11100
 21
130.23400
  0
LINE
  8
Gravur
 62
   255
 39
0.200
  6
CONTINUOUS
 10
34.11100
 20
130.23400
 30
 0
 11
34.11800
 21
130.30800
  0
LINE
  8
Gravur
 62
   255
 39
0.200
  6
CONTINUOUS
 10
34.11800
 20
130.30800
 30
 0
 11
34.11800
 21
130.30800
  0
LINE
  8
Gravur
 62
   255
 39
0.200
  6
CONTINUOUS
 10
34.11800
 20
130.30800
 30
 0
 11
34.11800
 21
131.74800
  0
LINE
  8
Gravur
 62
   255
 39
0.200
  6
CONTINUOUS
 10
34.11800
 20
131.74800
 30
 0
 11
34.11400
 21
131.82000
  0
LINE
  8
Gravur
 62
   255
 39
0.200
  6
CONTINUOUS
 10
34.11400
 20
131.82000
 30
 0
 11
34.09900
 21
131.88900
  0
LINE
  8
Gravur
 62
   255
 39
0.200
  6
CONTINUOUS
 10
34.09900
 20
131.88900
 30
 0
 11
34.07500
 21
131.95600
  0
LINE
  8
Gravur
 62
   255
 39
0.200
  6
CONTINUOUS
 10
34.07500
 20
131.95600
 30
 0
 11
34.04300
 21
132.01800
  0
LINE
  8
Gravur
 62
   255
 39
0.200
  6
CONTINUOUS
 10
34.04300
 20
132.01800
 30
 0
 11
34.00300
 21
132.07400
  0
LINE
  8
Gravur
 62
   255
 39
0.200
  6
CONTINUOUS
 10
34.00300
 20
132.07400
 30
 0
 11
33.95500
 21
132.12300
  0
LINE
  8
Gravur
 62
   255
 39
0.200
  6
CONTINUOUS
 10
33.95500
 20
132.12300
 30
 0
 11
33.90200
 21
132.16400
  0
LINE
  8
Gravur
 62
   255
 39
0.200
  6
CONTINUOUS
 10
33.90200
 20
132.16400
 30
 0
 11
33.84400
 21
132.19500
  0
LINE
  8
Gravur
 62
   255
 39
0.200
  6
CONTINUOUS
 10
33.84400
 20
132.19500
 30
 0
 11
33.78200
 21
132.21600
  0
LINE
  8
Gravur
 62
   255
 39
0.200
  6
CONTINUOUS
 10
33.78200
 20
132.21600
 30
 0
 11
33.71800
 21
132.22700
  0
LINE
  8
Gravur
 62
   255
 39
0.200
  6
CONTINUOUS
 10
33.71800
 20
132.22700
 30
 0
 11
33.65400
 21
132.22700
  0
LINE
  8
Gravur
 62
   255
 39
0.200
  6
CONTINUOUS
 10
33.65400
 20
132.22700
 30
 0
 11
33.59000
 21
132.21600
  0
LINE
  8
Gravur
 62
   255
 39
0.200
  6
CONTINUOUS
 10
33.59000
 20
132.21600
 30
 0
 11
33.52800
 21
132.19500
  0
LINE
  8
Gravur
 62
   255
 39
0.200
  6
CONTINUOUS
 10
33.52800
 20
132.19500
 30
 0
 11
33.47000
 21
132.16400
  0
LINE
  8
Gravur
 62
   255
 39
0.200
  6
CONTINUOUS
 10
33.47000
 20
132.16400
 30
 0
 11
33.41700
 21
132.12300
  0
LINE
  8
Gravur
 62
   255
 39
0.200
  6
CONTINUOUS
 10
33.41700
 20
132.12300
 30
 0
 11
33.36900
 21
132.07400
  0
LINE
  8
Gravur
 62
   255
 39
0.200
  6
CONTINUOUS
 10
33.36900
 20
132.07400
 30
 0
 11
33.32900
 21
132.01800
  0
LINE
  8
Gravur
 62
   255
 39
0.200
  6
CONTINUOUS
 10
33.32900
 20
132.01800
 30
 0
 11
33.29700
 21
131.95600
  0
LINE
  8
Gravur
 62
   255
 39
0.200
  6
CONTINUOUS
 10
33.29700
 20
131.95600
 30
 0
 11
33.27300
 21
131.88900
  0
LINE
  8
Gravur
 62
   255
 39
0.200
  6
CONTINUOUS
 10
33.27300
 20
131.88900
 30
 0
 11
33.25800
 21
131.82000
  0
LINE
  8
Gravur
 62
   255
 39
0.200
  6
CONTINUOUS
 10
33.25800
 20
131.82000
 30
 0
 11
33.25400
 21
131.74800
  0
LINE
  8
Gravur
 62
   255
 39
0.200
  6
CONTINUOUS
 10
33.25400
 20
131.74800
 30
 0
 11
33.25400
 21
131.74800
  0
LINE
  8
Gravur
 62
   255
 39
0.200
  6
CONTINUOUS
 10
33.25400
 20
131.74800
 30
 0
 11
33.25400
 21
131.38800
  0
LINE
  8
Gravur
 62
   255
 39
0.200
  6
CONTINUOUS
 10
33.25400
 20
131.38800
 30
 0
 11
33.26700
 21
131.31600
  0
LINE
  8
Gravur
 62
   255
 39
0.200
  6
CONTINUOUS
 10
33.26700
 20
131.31600
 30
 0
 11
33.28800
 21
131.24600
  0
LINE
  8
Gravur
 62
   255
 39
0.200
  6
CONTINUOUS
 10
33.28800
 20
131.24600
 30
 0
 11
33.31900
 21
131.18100
  0
LINE
  8
Gravur
 62
   255
 39
0.200
  6
CONTINUOUS
 10
33.31900
 20
131.18100
 30
 0
 11
33.35800
 21
131.12200
  0
LINE
  8
Gravur
 62
   255
 39
0.200
  6
CONTINUOUS
 10
33.35800
 20
131.12200
 30
 0
 11
33.40500
 21
131.06900
  0
LINE
  8
Gravur
 62
   255
 39
0.200
  6
CONTINUOUS
 10
33.40500
 20
131.06900
 30
 0
 11
33.45800
 21
131.02500
  0
LINE
  8
Gravur
 62
   255
 39
0.200
  6
CONTINUOUS
 10
33.45800
 20
131.02500
 30
 0
 11
33.51700
 21
130.99000
  0
LINE
  8
Gravur
 62
   255
 39
0.200
  6
CONTINUOUS
 10
33.51700
 20
130.99000
 30
 0
 11
33.57900
 21
130.96500
  0
LINE
  8
Gravur
 62
   255
 39
0.200
  6
CONTINUOUS
 10
33.57900
 20
130.96500
 30
 0
 11
33.64400
 21
130.95100
  0
LINE
  8
Gravur
 62
   255
 39
0.200
  6
CONTINUOUS
 10
33.64400
 20
130.95100
 30
 0
 11
33.71000
 21
130.94700
  0
LINE
  8
Gravur
 62
   255
 39
0.200
  6
CONTINUOUS
 10
33.71000
 20
130.94700
 30
 0
 11
33.77600
 21
130.95400
  0
LINE
  8
Gravur
 62
   255
 39
0.200
  6
CONTINUOUS
 10
33.77600
 20
130.95400
 30
 0
 11
33.84000
 21
130.97200
  0
LINE
  8
Gravur
 62
   255
 39
0.200
  6
CONTINUOUS
 10
33.84000
 20
130.97200
 30
 0
 11
33.90100
 21
131.00000
  0
LINE
  8
Gravur
 62
   255
 39
0.200
  6
CONTINUOUS
 10
33.90100
 20
131.00000
 30
 0
 11
33.95900
 21
131.03800
  0
LINE
  8
Gravur
 62
   255
 39
0.200
  6
CONTINUOUS
 10
33.95900
 20
131.03800
 30
 0
 11
34.00900
 21
131.08500
  0
LINE
  8
Gravur
 62
   255
 39
0.200
  6
CONTINUOUS
 10
34.00900
 20
131.08500
 30
 0
 11
34.05400
 21
131.14000
  0
LINE
  8
Gravur
 62
   255
 39
0.200
  6
CONTINUOUS
 10
34.05400
 20
131.14000
 30
 0
 11
34.09000
 21
131.20100
  0
LINE
  8
Gravur
 62
   255
 39
0.200
  6
CONTINUOUS
 10
34.09000
 20
131.20100
 30
 0
 11
34.11900
 21
131.26800
  0
LINE
  8
Gravur
 62
   255
 39
0.200
  6
CONTINUOUS
 10
34.11900
 20
131.26800
 30
 0
 11
34.11800
 21
131.26800
  0
LINE
  8
Gravur
 62
   255
 39
0.200
  6
CONTINUOUS
 10
35.48900
 20
136.55900
 30
 0
 11
35.55600
 21
136.56400
  0
LINE
  8
Gravur
 62
   255
 39
0.200
  6
CONTINUOUS
 10
35.55600
 20
136.56400
 30
 0
 11
35.62100
 21
136.57900
  0
LINE
  8
Gravur
 62
   255
 39
0.200
  6
CONTINUOUS
 10
35.62100
 20
136.57900
 30
 0
 11
35.68400
 21
136.60500
  0
LINE
  8
Gravur
 62
   255
 39
0.200
  6
CONTINUOUS
 10
35.68400
 20
136.60500
 30
 0
 11
35.74300
 21
136.64100
  0
LINE
  8
Gravur
 62
   255
 39
0.200
  6
CONTINUOUS
 10
35.74300
 20
136.64100
 30
 0
 11
35.79600
 21
136.68500
  0
LINE
  8
Gravur
 62
   255
 39
0.200
  6
CONTINUOUS
 10
35.79600
 20
136.68500
 30
 0
 11
35.84400
 21
136.73800
  0
LINE
  8
Gravur
 62
   255
 39
0.200
  6
CONTINUOUS
 10
35.84400
 20
136.73800
 30
 0
 11
35.88300
 21
136.79700
  0
LINE
  8
Gravur
 62
   255
 39
0.200
  6
CONTINUOUS
 10
35.88300
 20
136.79700
 30
 0
 11
35.91600
 21
136.86200
  0
LINE
  8
Gravur
 62
   255
 39
0.200
  6
CONTINUOUS
 10
35.91600
 20
136.86200
 30
 0
 11
35.93900
 21
136.93200
  0
LINE
  8
Gravur
 62
   255
 39
0.200
  6
CONTINUOUS
 10
35.93900
 20
136.93200
 30
 0
 11
35.95300
 21
137.00500
  0
LINE
  8
Gravur
 62
   255
 39
0.200
  6
CONTINUOUS
 10
35.95300
 20
137.00500
 30
 0
 11
35.95700
 21
137.07900
  0
LINE
  8
Gravur
 62
   255
 39
0.200
  6
CONTINUOUS
 10
35.95700
 20
137.07900
 30
 0
 11
35.95700
 21
137.07900
  0
LINE
  8
Gravur
 62
   255
 39
0.200
  6
CONTINUOUS
 10
35.95700
 20
137.07900
 30
 0
 11
35.95700
 21
137.25900
  0
LINE
  8
Gravur
 62
   255
 39
0.200
  6
CONTINUOUS
 10
35.95700
 20
137.25900
 30
 0
 11
35.95200
 21
137.33200
  0
LINE
  8
Gravur
 62
   255
 39
0.200
  6
CONTINUOUS
 10
35.95200
 20
137.33200
 30
 0
 11
35.93600
 21
137.40300
  0
LINE
  8
Gravur
 62
   255
 39
0.200
  6
CONTINUOUS
 10
35.93600
 20
137.40300
 30
 0
 11
35.91300
 21
137.47000
  0
LINE
  8
Gravur
 62
   255
 39
0.200
  6
CONTINUOUS
 10
35.91300
 20
137.47000
 30
 0
 11
35.88100
 21
137.53400
  0
LINE
  8
Gravur
 62
   255
 39
0.200
  6
CONTINUOUS
 10
35.88100
 20
137.53400
 30
 0
 11
35.84000
 21
137.59100
  0
LINE
  8
Gravur
 62
   255
 39
0.200
  6
CONTINUOUS
 10
35.84000
 20
137.59100
 30
 0
 11
35.79200
 21
137.64200
  0
LINE
  8
Gravur
 62
   255
 39
0.200
  6
CONTINUOUS
 10
35.79200
 20
137.64200
 30
 0
 11
35.73900
 21
137.68400
  0
LINE
  8
Gravur
 62
   255
 39
0.200
  6
CONTINUOUS
 10
35.73900
 20
137.68400
 30
 0
 11
35.68100
 21
137.71800
  0
LINE
  8
Gravur
 62
   255
 39
0.200
  6
CONTINUOUS
 10
35.68100
 20
137.71800
 30
 0
 11
35.61900
 21
137.74200
  0
LINE
  8
Gravur
 62
   255
 39
0.200
  6
CONTINUOUS
 10
35.61900
 20
137.74200
 30
 0
 11
35.55500
 21
137.75600
  0
LINE
  8
Gravur
 62
   255
 39
0.200
  6
CONTINUOUS
 10
35.55500
 20
137.75600
 30
 0
 11
35.48900
 21
137.75900
  0
LINE
  8
Gravur
 62
   255
 39
0.200
  6
CONTINUOUS
 10
35.48900
 20
137.75900
 30
 0
 11
35.48900
 21
137.75900
  0
LINE
  8
Gravur
 62
   255
 39
0.200
  6
CONTINUOUS
 10
35.48900
 20
137.75900
 30
 0
 11
35.55000
 21
137.76400
  0
LINE
  8
Gravur
 62
   255
 39
0.200
  6
CONTINUOUS
 10
35.55000
 20
137.76400
 30
 0
 11
35.61100
 21
137.77800
  0
LINE
  8
Gravur
 62
   255
 39
0.200
  6
CONTINUOUS
 10
35.61100
 20
137.77800
 30
 0
 11
35.66900
 21
137.80200
  0
LINE
  8
Gravur
 62
   255
 39
0.200
  6
CONTINUOUS
 10
35.66900
 20
137.80200
 30
 0
 11
35.72300
 21
137.83400
  0
LINE
  8
Gravur
 62
   255
 39
0.200
  6
CONTINUOUS
 10
35.72300
 20
137.83400
 30
 0
 11
35.77300
 21
137.87500
  0
LINE
  8
Gravur
 62
   255
 39
0.200
  6
CONTINUOUS
 10
35.77300
 20
137.87500
 30
 0
 11
35.81700
 21
137.92400
  0
LINE
  8
Gravur
 62
   255
 39
0.200
  6
CONTINUOUS
 10
35.81700
 20
137.92400
 30
 0
 11
35.85400
 21
137.97900
  0
LINE
  8
Gravur
 62
   255
 39
0.200
  6
CONTINUOUS
 10
35.85400
 20
137.97900
 30
 0
 11
35.88200
 21
138.03900
  0
LINE
  8
Gravur
 62
   255
 39
0.200
  6
CONTINUOUS
 10
35.88200
 20
138.03900
 30
 0
 11
35.90400
 21
138.10300
  0
LINE
  8
Gravur
 62
   255
 39
0.200
  6
CONTINUOUS
 10
35.90400
 20
138.10300
 30
 0
 11
35.91700
 21
138.17100
  0
LINE
  8
Gravur
 62
   255
 39
0.200
  6
CONTINUOUS
 10
35.91700
 20
138.17100
 30
 0
 11
35.92100
 21
138.23900
  0
LINE
  8
Gravur
 62
   255
 39
0.200
  6
CONTINUOUS
 10
35.92100
 20
138.23900
 30
 0
 11
35.92100
 21
138.23900
  0
LINE
  8
Gravur
 62
   255
 39
0.200
  6
CONTINUOUS
 10
35.92100
 20
138.23900
 30
 0
 11
35.92100
 21
138.47900
  0
LINE
  8
Gravur
 62
   255
 39
0.200
  6
CONTINUOUS
 10
35.92100
 20
138.47900
 30
 0
 11
35.91700
 21
138.55100
  0
LINE
  8
Gravur
 62
   255
 39
0.200
  6
CONTINUOUS
 10
35.91700
 20
138.55100
 30
 0
 11
35.90200
 21
138.62000
  0
LINE
  8
Gravur
 62
   255
 39
0.200
  6
CONTINUOUS
 10
35.90200
 20
138.62000
 30
 0
 11
35.87800
 21
138.68700
  0
LINE
  8
Gravur
 62
   255
 39
0.200
  6
CONTINUOUS
 10
35.87800
 20
138.68700
 30
 0
 11
35.84600
 21
138.74900
  0
LINE
  8
Gravur
 62
   255
 39
0.200
  6
CONTINUOUS
 10
35.84600
 20
138.74900
 30
 0
 11
35.80600
 21
138.80500
  0
LINE
  8
Gravur
 62
   255
 39
0.200
  6
CONTINUOUS
 10
35.80600
 20
138.80500
 30
 0
 11
35.75800
 21
138.85400
  0
LINE
  8
Gravur
 62
   255
 39
0.200
  6
CONTINUOUS
 10
35.75800
 20
138.85400
 30
 0
 11
35.70500
 21
138.89500
  0
LINE
  8
Gravur
 62
   255
 39
0.200
  6
CONTINUOUS
 10
35.70500
 20
138.89500
 30
 0
 11
35.64700
 21
138.92600
  0
LINE
  8
Gravur
 62
   255
 39
0.200
  6
CONTINUOUS
 10
35.64700
 20
138.92600
 30
 0
 11
35.58500
 21
138.94700
  0
LINE
  8
Gravur
 62
   255
 39
0.200
  6
CONTINUOUS
 10
35.58500
 20
138.94700
 30
 0
 11
35.52100
 21
138.95800
  0
LINE
  8
Gravur
 62
   255
 39
0.200
  6
CONTINUOUS
 10
35.52100
 20
138.95800
 30
 0
 11
35.45700
 21
138.95800
  0
LINE
  8
Gravur
 62
   255
 39
0.200
  6
CONTINUOUS
 10
35.45700
 20
138.95800
 30
 0
 11
35.39300
 21
138.94700
  0
LINE
  8
Gravur
 62
   255
 39
0.200
  6
CONTINUOUS
 10
35.39300
 20
138.94700
 30
 0
 11
35.33100
 21
138.92600
  0
LINE
  8
Gravur
 62
   255
 39
0.200
  6
CONTINUOUS
 10
35.33100
 20
138.92600
 30
 0
 11
35.27300
 21
138.89500
  0
LINE
  8
Gravur
 62
   255
 39
0.200
  6
CONTINUOUS
 10
35.27300
 20
138.89500
 30
 0
 11
35.22000
 21
138.85400
  0
LINE
  8
Gravur
 62
   255
 39
0.200
  6
CONTINUOUS
 10
35.22000
 20
138.85400
 30
 0
 11
35.17200
 21
138.80500
  0
LINE
  8
Gravur
 62
   255
 39
0.200
  6
CONTINUOUS
 10
35.17200
 20
138.80500
 30
 0
 11
35.13200
 21
138.74900
  0
LINE
  8
Gravur
 62
   255
 39
0.200
  6
CONTINUOUS
 10
35.13200
 20
138.74900
 30
 0
 11
35.10000
 21
138.68700
  0
LINE
  8
Gravur
 62
   255
 39
0.200
  6
CONTINUOUS
 10
35.10000
 20
138.68700
 30
 0
 11
35.07600
 21
138.62000
  0
LINE
  8
Gravur
 62
   255
 39
0.200
  6
CONTINUOUS
 10
35.07600
 20
138.62000
 30
 0
 11
35.06100
 21
138.55100
  0
LINE
  8
Gravur
 62
   255
 39
0.200
  6
CONTINUOUS
 10
35.06100
 20
138.55100
 30
 0
 11
35.05700
 21
138.47900
  0
LINE
  8
Gravur
 62
   255
 39
0.200
  6
CONTINUOUS
 10
35.05700
 20
138.47900
 30
 0
 11
35.05700
 21
138.47900
  0
LINE
  8
Gravur
 62
   255
 39
0.200
  6
CONTINUOUS
 10
35.05700
 20
138.47900
 30
 0
 11
35.05700
 21
138.23900
  0
LINE
  8
Gravur
 62
   255
 39
0.200
  6
CONTINUOUS
 10
35.05700
 20
138.23900
 30
 0
 11
35.06100
 21
138.17100
  0
LINE
  8
Gravur
 62
   255
 39
0.200
  6
CONTINUOUS
 10
35.06100
 20
138.17100
 30
 0
 11
35.07400
 21
138.10300
  0
LINE
  8
Gravur
 62
   255
 39
0.200
  6
CONTINUOUS
 10
35.07400
 20
138.10300
 30
 0
 11
35.09600
 21
138.03900
  0
LINE
  8
Gravur
 62
   255
 39
0.200
  6
CONTINUOUS
 10
35.09600
 20
138.03900
 30
 0
 11
35.12400
 21
137.97900
  0
LINE
  8
Gravur
 62
   255
 39
0.200
  6
CONTINUOUS
 10
35.12400
 20
137.97900
 30
 0
 11
35.16100
 21
137.92400
  0
LINE
  8
Gravur
 62
   255
 39
0.200
  6
CONTINUOUS
 10
35.16100
 20
137.92400
 30
 0
 11
35.20500
 21
137.87500
  0
LINE
  8
Gravur
 62
   255
 39
0.200
  6
CONTINUOUS
 10
35.20500
 20
137.87500
 30
 0
 11
35.25500
 21
137.83400
  0
LINE
  8
Gravur
 62
   255
 39
0.200
  6
CONTINUOUS
 10
35.25500
 20
137.83400
 30
 0
 11
35.30900
 21
137.80200
  0
LINE
  8
Gravur
 62
   255
 39
0.200
  6
CONTINUOUS
 10
35.30900
 20
137.80200
 30
 0
 11
35.36700
 21
137.77800
  0
LINE
  8
Gravur
 62
   255
 39
0.200
  6
CONTINUOUS
 10
35.36700
 20
137.77800
 30
 0
 11
35.42800
 21
137.76400
  0
LINE
  8
Gravur
 62
   255
 39
0.200
  6
CONTINUOUS
 10
35.42800
 20
137.76400
 30
 0
 11
35.48900
 21
137.75900
  0
LINE
  8
Gravur
 62
   255
 39
0.200
  6
CONTINUOUS
 10
35.48900
 20
137.75900
 30
 0
 11
35.48900
 21
137.75900
  0
LINE
  8
Gravur
 62
   255
 39
0.200
  6
CONTINUOUS
 10
35.48900
 20
137.75900
 30
 0
 11
35.42300
 21
137.75600
  0
LINE
  8
Gravur
 62
   255
 39
0.200
  6
CONTINUOUS
 10
35.42300
 20
137.75600
 30
 0
 11
35.35900
 21
137.74200
  0
LINE
  8
Gravur
 62
   255
 39
0.200
  6
CONTINUOUS
 10
35.35900
 20
137.74200
 30
 0
 11
35.29700
 21
137.71800
  0
LINE
  8
Gravur
 62
   255
 39
0.200
  6
CONTINUOUS
 10
35.29700
 20
137.71800
 30
 0
 11
35.23900
 21
137.68400
  0
LINE
  8
Gravur
 62
   255
 39
0.200
  6
CONTINUOUS
 10
35.23900
 20
137.68400
 30
 0
 11
35.18600
 21
137.64200
  0
LINE
  8
Gravur
 62
   255
 39
0.200
  6
CONTINUOUS
 10
35.18600
 20
137.64200
 30
 0
 11
35.13800
 21
137.59100
  0
LINE
  8
Gravur
 62
   255
 39
0.200
  6
CONTINUOUS
 10
35.13800
 20
137.59100
 30
 0
 11
35.09700
 21
137.53400
  0
LINE
  8
Gravur
 62
   255
 39
0.200
  6
CONTINUOUS
 10
35.09700
 20
137.53400
 30
 0
 11
35.06500
 21
137.47100
  0
LINE
  8
Gravur
 62
   255
 39
0.200
  6
CONTINUOUS
 10
35.06500
 20
137.47100
 30
 0
 11
35.04200
 21
137.40300
  0
LINE
  8
Gravur
 62
   255
 39
0.200
  6
CONTINUOUS
 10
35.04200
 20
137.40300
 30
 0
 11
35.02600
 21
137.33200
  0
LINE
  8
Gravur
 62
   255
 39
0.200
  6
CONTINUOUS
 10
35.02600
 20
137.33200
 30
 0
 11
35.02100
 21
137.25900
  0
LINE
  8
Gravur
 62
   255
 39
0.200
  6
CONTINUOUS
 10
35.02100
 20
137.25900
 30
 0
 11
35.02100
 21
137.25900
  0
LINE
  8
Gravur
 62
   255
 39
0.200
  6
CONTINUOUS
 10
35.02100
 20
137.25900
 30
 0
 11
35.02100
 21
137.07900
  0
LINE
  8
Gravur
 62
   255
 39
0.200
  6
CONTINUOUS
 10
35.02100
 20
137.07900
 30
 0
 11
35.02500
 21
137.00500
  0
LINE
  8
Gravur
 62
   255
 39
0.200
  6
CONTINUOUS
 10
35.02500
 20
137.00500
 30
 0
 11
35.03900
 21
136.93200
  0
LINE
  8
Gravur
 62
   255
 39
0.200
  6
CONTINUOUS
 10
35.03900
 20
136.93200
 30
 0
 11
35.06200
 21
136.86200
  0
LINE
  8
Gravur
 62
   255
 39
0.200
  6
CONTINUOUS
 10
35.06200
 20
136.86200
 30
 0
 11
35.09500
 21
136.79700
  0
LINE
  8
Gravur
 62
   255
 39
0.200
  6
CONTINUOUS
 10
35.09500
 20
136.79700
 30
 0
 11
35.13400
 21
136.73800
  0
LINE
  8
Gravur
 62
   255
 39
0.200
  6
CONTINUOUS
 10
35.13400
 20
136.73800
 30
 0
 11
35.18200
 21
136.68500
  0
LINE
  8
Gravur
 62
   255
 39
0.200
  6
CONTINUOUS
 10
35.18200
 20
136.68500
 30
 0
 11
35.23500
 21
136.64100
  0
LINE
  8
Gravur
 62
   255
 39
0.200
  6
CONTINUOUS
 10
35.23500
 20
136.64100
 30
 0
 11
35.29400
 21
136.60500
  0
LINE
  8
Gravur
 62
   255
 39
0.200
  6
CONTINUOUS
 10
35.29400
 20
136.60500
 30
 0
 11
35.35700
 21
136.57900
  0
LINE
  8
Gravur
 62
   255
 39
0.200
  6
CONTINUOUS
 10
35.35700
 20
136.57900
 30
 0
 11
35.42200
 21
136.56400
  0
LINE
  8
Gravur
 62
   255
 39
0.200
  6
CONTINUOUS
 10
35.42200
 20
136.56400
 30
 0
 11
35.48900
 21
136.55900
  0
LINE
  8
Gravur
 62
   255
 39
0.200
  6
CONTINUOUS
 10
33.22700
 20
145.27000
 30
 0
 11
33.22700
 21
145.69000
  0
LINE
  8
Gravur
 62
   255
 39
0.200
  6
CONTINUOUS
 10
33.22700
 20
145.69000
 30
 0
 11
34.14500
 21
145.69000
  0
LINE
  8
Gravur
 62
   255
 39
0.200
  6
CONTINUOUS
 10
34.14500
 20
145.69000
 30
 0
 11
33.44300
 21
143.29000
  0
LINE
  8
Gravur
 62
   255
 39
0.200
  6
CONTINUOUS
 10
29.34500
 20
150.29600
 30
 0
 11
29.34100
 21
150.37500
  0
LINE
  8
Gravur
 62
   255
 39
0.200
  6
CONTINUOUS
 10
29.34100
 20
150.37500
 30
 0
 11
29.32700
 21
150.45300
  0
LINE
  8
Gravur
 62
   255
 39
0.200
  6
CONTINUOUS
 10
29.32700
 20
150.45300
 30
 0
 11
29.30300
 21
150.52800
  0
LINE
  8
Gravur
 62
   255
 39
0.200
  6
CONTINUOUS
 10
29.30300
 20
150.52800
 30
 0
 11
29.26800
 21
150.59700
  0
LINE
  8
Gravur
 62
   255
 39
0.200
  6
CONTINUOUS
 10
29.26800
 20
150.59700
 30
 0
 11
29.22400
 21
150.66000
  0
LINE
  8
Gravur
 62
   255
 39
0.200
  6
CONTINUOUS
 10
29.22400
 20
150.66000
 30
 0
 11
29.17300
 21
150.71600
  0
LINE
  8
Gravur
 62
   255
 39
0.200
  6
CONTINUOUS
 10
29.17300
 20
150.71600
 30
 0
 11
29.11500
 21
150.76200
  0
LINE
  8
Gravur
 62
   255
 39
0.200
  6
CONTINUOUS
 10
29.11500
 20
150.76200
 30
 0
 11
29.05200
 21
150.79700
  0
LINE
  8
Gravur
 62
   255
 39
0.200
  6
CONTINUOUS
 10
29.05200
 20
150.79700
 30
 0
 11
28.98300
 21
150.82200
  0
LINE
  8
Gravur
 62
   255
 39
0.200
  6
CONTINUOUS
 10
28.98300
 20
150.82200
 30
 0
 11
28.91300
 21
150.83600
  0
LINE
  8
Gravur
 62
   255
 39
0.200
  6
CONTINUOUS
 10
28.91300
 20
150.83600
 30
 0
 11
28.91300
 21
150.83600
  0
LINE
  8
Gravur
 62
   255
 39
0.200
  6
CONTINUOUS
 10
28.91300
 20
150.83600
 30
 0
 11
28.84600
 21
150.83700
  0
LINE
  8
Gravur
 62
   255
 39
0.200
  6
CONTINUOUS
 10
28.84600
 20
150.83700
 30
 0
 11
28.78100
 21
150.82800
  0
LINE
  8
Gravur
 62
   255
 39
0.200
  6
CONTINUOUS
 10
28.78100
 20
150.82800
 30
 0
 11
28.71800
 21
150.80700
  0
LINE
  8
Gravur
 62
   255
 39
0.200
  6
CONTINUOUS
 10
28.71800
 20
150.80700
 30
 0
 11
28.65700
 21
150.77700
  0
LINE
  8
Gravur
 62
   255
 39
0.200
  6
CONTINUOUS
 10
28.65700
 20
150.77700
 30
 0
 11
28.60100
 21
150.73600
  0
LINE
  8
Gravur
 62
   255
 39
0.200
  6
CONTINUOUS
 10
28.60100
 20
150.73600
 30
 0
 11
28.55200
 21
150.68800
  0
LINE
  8
Gravur
 62
   255
 39
0.200
  6
CONTINUOUS
 10
28.55200
 20
150.68800
 30
 0
 11
28.51000
 21
150.63100
  0
LINE
  8
Gravur
 62
   255
 39
0.200
  6
CONTINUOUS
 10
28.51000
 20
150.63100
 30
 0
 11
28.47500
 21
150.56800
  0
LINE
  8
Gravur
 62
   255
 39
0.200
  6
CONTINUOUS
 10
28.47500
 20
150.56800
 30
 0
 11
28.45000
 21
150.50000
  0
LINE
  8
Gravur
 62
   255
 39
0.200
  6
CONTINUOUS
 10
28.45000
 20
150.50000
 30
 0
 11
28.43400
 21
150.42900
  0
LINE
  8
Gravur
 62
   255
 39
0.200
  6
CONTINUOUS
 10
28.43400
 20
150.42900
 30
 0
 11
28.42700
 21
150.35600
  0
LINE
  8
Gravur
 62
   255
 39
0.200
  6
CONTINUOUS
 10
28.42700
 20
150.35600
 30
 0
 11
28.42700
 21
150.35600
  0
LINE
  8
Gravur
 62
   255
 39
0.200
  6
CONTINUOUS
 10
28.42700
 20
150.35600
 30
 0
 11
28.42700
 21
148.91600
  0
LINE
  8
Gravur
 62
   255
 39
0.200
  6
CONTINUOUS
 10
28.42700
 20
148.91600
 30
 0
 11
28.43900
 21
148.84400
  0
LINE
  8
Gravur
 62
   255
 39
0.200
  6
CONTINUOUS
 10
28.43900
 20
148.84400
 30
 0
 11
28.45800
 21
148.77400
  0
LINE
  8
Gravur
 62
   255
 39
0.200
  6
CONTINUOUS
 10
28.45800
 20
148.77400
 30
 0
 11
28.48600
 21
148.70800
  0
LINE
  8
Gravur
 62
   255
 39
0.200
  6
CONTINUOUS
 10
28.48600
 20
148.70800
 30
 0
 11
28.52300
 21
148.64600
  0
LINE
  8
Gravur
 62
   255
 39
0.200
  6
CONTINUOUS
 10
28.52300
 20
148.64600
 30
 0
 11
28.56600
 21
148.59100
  0
LINE
  8
Gravur
 62
   255
 39
0.200
  6
CONTINUOUS
 10
28.56600
 20
148.59100
 30
 0
 11
28.61600
 21
148.54300
  0
LINE
  8
Gravur
 62
   255
 39
0.200
  6
CONTINUOUS
 10
28.61600
 20
148.54300
 30
 0
 11
28.67200
 21
148.50200
  0
LINE
  8
Gravur
 62
   255
 39
0.200
  6
CONTINUOUS
 10
28.67200
 20
148.50200
 30
 0
 11
28.73100
 21
148.47100
  0
LINE
  8
Gravur
 62
   255
 39
0.200
  6
CONTINUOUS
 10
28.73100
 20
148.47100
 30
 0
 11
28.79400
 21
148.44900
  0
LINE
  8
Gravur
 62
   255
 39
0.200
  6
CONTINUOUS
 10
28.79400
 20
148.44900
 30
 0
 11
28.85900
 21
148.43600
  0
LINE
  8
Gravur
 62
   255
 39
0.200
  6
CONTINUOUS
 10
28.85900
 20
148.43600
 30
 0
 11
28.85900
 21
148.43600
  0
LINE
  8
Gravur
 62
   255
 39
0.200
  6
CONTINUOUS
 10
28.85900
 20
148.43600
 30
 0
 11
28.93000
 21
148.44000
  0
LINE
  8
Gravur
 62
   255
 39
0.200
  6
CONTINUOUS
 10
28.93000
 20
148.44000
 30
 0
 11
29.00000
 21
148.45600
  0
LINE
  8
Gravur
 62
   255
 39
0.200
  6
CONTINUOUS
 10
29.00000
 20
148.45600
 30
 0
 11
29.06800
 21
148.48300
  0
LINE
  8
Gravur
 62
   255
 39
0.200
  6
CONTINUOUS
 10
29.06800
 20
148.48300
 30
 0
 11
29.13000
 21
148.52200
  0
LINE
  8
Gravur
 62
   255
 39
0.200
  6
CONTINUOUS
 10
29.13000
 20
148.52200
 30
 0
 11
29.18700
 21
148.57000
  0
LINE
  8
Gravur
 62
   255
 39
0.200
  6
CONTINUOUS
 10
29.18700
 20
148.57000
 30
 0
 11
29.23700
 21
148.62700
  0
LINE
  8
Gravur
 62
   255
 39
0.200
  6
CONTINUOUS
 10
29.23700
 20
148.62700
 30
 0
 11
29.27800
 21
148.69200
  0
LINE
  8
Gravur
 62
   255
 39
0.200
  6
CONTINUOUS
 10
29.27800
 20
148.69200
 30
 0
 11
29.31000
 21
148.76200
  0
LINE
  8
Gravur
 62
   255
 39
0.200
  6
CONTINUOUS
 10
29.31000
 20
148.76200
 30
 0
 11
29.33200
 21
148.83800
  0
LINE
  8
Gravur
 62
   255
 39
0.200
  6
CONTINUOUS
 10
29.33200
 20
148.83800
 30
 0
 11
29.34500
 21
148.91600
  0
LINE
  8
Gravur
 62
   255
 39
0.200
  6
CONTINUOUS
 10
29.34500
 20
148.91600
 30
 0
 11
29.34500
 21
148.91600
  0
LINE
  8
Gravur
 62
   255
 39
0.200
  6
CONTINUOUS
 10
29.34500
 20
148.91600
 30
 0
 11
29.34500
 21
149.39600
  0
LINE
  8
Gravur
 62
   255
 39
0.200
  6
CONTINUOUS
 10
29.34500
 20
149.39600
 30
 0
 11
29.33200
 21
149.47200
  0
LINE
  8
Gravur
 62
   255
 39
0.200
  6
CONTINUOUS
 10
29.33200
 20
149.47200
 30
 0
 11
29.31000
 21
149.54500
  0
LINE
  8
Gravur
 62
   255
 39
0.200
  6
CONTINUOUS
 10
29.31000
 20
149.54500
 30
 0
 11
29.27800
 21
149.61300
  0
LINE
  8
Gravur
 62
   255
 39
0.200
  6
CONTINUOUS
 10
29.27800
 20
149.61300
 30
 0
 11
29.23900
 21
149.67600
  0
LINE
  8
Gravur
 62
   255
 39
0.200
  6
CONTINUOUS
 10
29.23900
 20
149.67600
 30
 0
 11
29.19100
 21
149.73200
  0
LINE
  8
Gravur
 62
   255
 39
0.200
  6
CONTINUOUS
 10
29.19100
 20
149.73200
 30
 0
 11
29.13700
 21
149.78000
  0
LINE
  8
Gravur
 62
   255
 39
0.200
  6
CONTINUOUS
 10
29.13700
 20
149.78000
 30
 0
 11
29.07800
 21
149.81900
  0
LINE
  8
Gravur
 62
   255
 39
0.200
  6
CONTINUOUS
 10
29.07800
 20
149.81900
 30
 0
 11
29.01400
 21
149.84800
  0
LINE
  8
Gravur
 62
   255
 39
0.200
  6
CONTINUOUS
 10
29.01400
 20
149.84800
 30
 0
 11
28.94600
 21
149.86700
  0
LINE
  8
Gravur
 62
   255
 39
0.200
  6
CONTINUOUS
 10
28.94600
 20
149.86700
 30
 0
 11
28.87700
 21
149.87500
  0
LINE
  8
Gravur
 62
   255
 39
0.200
  6
CONTINUOUS
 10
28.87700
 20
149.87500
 30
 0
 11
28.80800
 21
149.87200
  0
LINE
  8
Gravur
 62
   255
 39
0.200
  6
CONTINUOUS
 10
28.80800
 20
149.87200
 30
 0
 11
28.74000
 21
149.85800
  0
LINE
  8
Gravur
 62
   255
 39
0.200
  6
CONTINUOUS
 10
28.74000
 20
149.85800
 30
 0
 11
28.67400
 21
149.83400
  0
LINE
  8
Gravur
 62
   255
 39
0.200
  6
CONTINUOUS
 10
28.67400
 20
149.83400
 30
 0
 11
28.61200
 21
149.79900
  0
LINE
  8
Gravur
 62
   255
 39
0.200
  6
CONTINUOUS
 10
28.61200
 20
149.79900
 30
 0
 11
28.55600
 21
149.75500
  0
LINE
  8
Gravur
 62
   255
 39
0.200
  6
CONTINUOUS
 10
28.55600
 20
149.75500
 30
 0
 11
28.50500
 21
149.70300
  0
LINE
  8
Gravur
 62
   255
 39
0.200
  6
CONTINUOUS
 10
28.50500
 20
149.70300
 30
 0
 11
28.46200
 21
149.64300
  0
LINE
  8
Gravur
 62
   255
 39
0.200
  6
CONTINUOUS
 10
28.46200
 20
149.64300
 30
 0
 11
28.42600
 21
149.57600
  0
LINE
  8
Gravur
 62
   255
 39
0.200
  6
CONTINUOUS
 10
28.42600
 20
149.57600
 30
 0
 11
28.42700
 21
149.57600
  0
LINE
  8
Gravur
 62
   255
 39
0.200
  6
CONTINUOUS
 10
8.10300
 20
138.41900
 30
 0
 11
8.10200
 21
138.49300
  0
LINE
  8
Gravur
 62
   255
 39
0.200
  6
CONTINUOUS
 10
8.10200
 20
138.49300
 30
 0
 11
8.11100
 21
138.56700
  0
LINE
  8
Gravur
 62
   255
 39
0.200
  6
CONTINUOUS
 10
8.11100
 20
138.56700
 30
 0
 11
8.12900
 21
138.63800
  0
LINE
  8
Gravur
 62
   255
 39
0.200
  6
CONTINUOUS
 10
8.12900
 20
138.63800
 30
 0
 11
8.15800
 21
138.70500
  0
LINE
  8
Gravur
 62
   255
 39
0.200
  6
CONTINUOUS
 10
8.15800
 20
138.70500
 30
 0
 11
8.19400
 21
138.76700
  0
LINE
  8
Gravur
 62
   255
 39
0.200
  6
CONTINUOUS
 10
8.19400
 20
138.76700
 30
 0
 11
8.23900
 21
138.82200
  0
LINE
  8
Gravur
 62
   255
 39
0.200
  6
CONTINUOUS
 10
8.23900
 20
138.82200
 30
 0
 11
8.29000
 21
138.86900
  0
LINE
  8
Gravur
 62
   255
 39
0.200
  6
CONTINUOUS
 10
8.29000
 20
138.86900
 30
 0
 11
8.34800
 21
138.90700
  0
LINE
  8
Gravur
 62
   255
 39
0.200
  6
CONTINUOUS
 10
8.34800
 20
138.90700
 30
 0
 11
8.41000
 21
138.93500
  0
LINE
  8
Gravur
 62
   255
 39
0.200
  6
CONTINUOUS
 10
8.41000
 20
138.93500
 30
 0
 11
8.47500
 21
138.95300
  0
LINE
  8
Gravur
 62
   255
 39
0.200
  6
CONTINUOUS
 10
8.47500
 20
138.95300
 30
 0
 11
8.53500
 21
138.95900
  0
LINE
  8
Gravur
 62
   255
 39
0.200
  6
CONTINUOUS
 10
8.53500
 20
138.95900
 30
 0
 11
8.60500
 21
138.95700
  0
LINE
  8
Gravur
 62
   255
 39
0.200
  6
CONTINUOUS
 10
8.60500
 20
138.95700
 30
 0
 11
8.67400
 21
138.94400
  0
LINE
  8
Gravur
 62
   255
 39
0.200
  6
CONTINUOUS
 10
8.67400
 20
138.94400
 30
 0
 11
8.74000
 21
138.91900
  0
LINE
  8
Gravur
 62
   255
 39
0.200
  6
CONTINUOUS
 10
8.74000
 20
138.91900
 30
 0
 11
8.80200
 21
138.88400
  0
LINE
  8
Gravur
 62
   255
 39
0.200
  6
CONTINUOUS
 10
8.80200
 20
138.88400
 30
 0
 11
8.85800
 21
138.83900
  0
LINE
  8
Gravur
 62
   255
 39
0.200
  6
CONTINUOUS
 10
8.85800
 20
138.83900
 30
 0
 11
8.90900
 21
138.78500
  0
LINE
  8
Gravur
 62
   255
 39
0.200
  6
CONTINUOUS
 10
8.90900
 20
138.78500
 30
 0
 11
8.95100
 21
138.72400
  0
LINE
  8
Gravur
 62
   255
 39
0.200
  6
CONTINUOUS
 10
8.95100
 20
138.72400
 30
 0
 11
8.98400
 21
138.65600
  0
LINE
  8
Gravur
 62
   255
 39
0.200
  6
CONTINUOUS
 10
8.98400
 20
138.65600
 30
 0
 11
9.00900
 21
138.58400
  0
LINE
  8
Gravur
 62
   255
 39
0.200
  6
CONTINUOUS
 10
9.00900
 20
138.58400
 30
 0
 11
9.02400
 21
138.50800
  0
LINE
  8
Gravur
 62
   255
 39
0.200
  6
CONTINUOUS
 10
9.02400
 20
138.50800
 30
 0
 11
9.02900
 21
138.43100
  0
LINE
  8
Gravur
 62
   255
 39
0.200
  6
CONTINUOUS
 10
9.02900
 20
138.43100
 30
 0
 11
9.02200
 21
138.35400
  0
LINE
  8
Gravur
 62
   255
 39
0.200
  6
CONTINUOUS
 10
9.02200
 20
138.35400
 30
 0
 11
9.00600
 21
138.27900
  0
LINE
  8
Gravur
 62
   255
 39
0.200
  6
CONTINUOUS
 10
9.00600
 20
138.27900
 30
 0
 11
8.98000
 21
138.20700
  0
LINE
  8
Gravur
 62
   255
 39
0.200
  6
CONTINUOUS
 10
8.98000
 20
138.20700
 30
 0
 11
8.96700
 21
138.17900
  0
LINE
  8
Gravur
 62
   255
 39
0.200
  6
CONTINUOUS
 10
8.96700
 20
138.17900
 30
 0
 11
8.10300
 21
136.55900
  0
LINE
  8
Gravur
 62
   255
 39
0.200
  6
CONTINUOUS
 10
8.10300
 20
136.55900
 30
 0
 11
9.02100
 21
136.55900
  0
LINE
  8
Gravur
 62
   255
 39
0.200
  6
CONTINUOUS
 10
10.12500
 20
131.62800
 30
 0
 11
10.61100
 21
132.22800
  0
LINE
  8
Gravur
 62
   255
 39
0.200
  6
CONTINUOUS
 10
10.61100
 20
132.22800
 30
 0
 11
10.61100
 21
129.82800
  0
LINE
  8
Gravur
 62
   255
 39
0.200
  6
CONTINUOUS
 10
14.68300
 20
125.22200
 30
 0
 11
14.68800
 21
125.14200
  0
LINE
  8
Gravur
 62
   255
 39
0.200
  6
CONTINUOUS
 10
14.68800
 20
125.14200
 30
 0
 11
14.70500
 21
125.06300
  0
LINE
  8
Gravur
 62
   255
 39
0.200
  6
CONTINUOUS
 10
14.70500
 20
125.06300
 30
 0
 11
14.73100
 21
124.98800
  0
LINE
  8
Gravur
 62
   255
 39
0.200
  6
CONTINUOUS
 10
14.73100
 20
124.98800
 30
 0
 11
14.76800
 21
124.91800
  0
LINE
  8
Gravur
 62
   255
 39
0.200
  6
CONTINUOUS
 10
14.76800
 20
124.91800
 30
 0
 11
14.81300
 21
124.85500
  0
LINE
  8
Gravur
 62
   255
 39
0.200
  6
CONTINUOUS
 10
14.81300
 20
124.85500
 30
 0
 11
14.86600
 21
124.80000
  0
LINE
  8
Gravur
 62
   255
 39
0.200
  6
CONTINUOUS
 10
14.86600
 20
124.80000
 30
 0
 11
14.92600
 21
124.75400
  0
LINE
  8
Gravur
 62
   255
 39
0.200
  6
CONTINUOUS
 10
14.92600
 20
124.75400
 30
 0
 11
14.99200
 21
124.71900
  0
LINE
  8
Gravur
 62
   255
 39
0.200
  6
CONTINUOUS
 10
14.99200
 20
124.71900
 30
 0
 11
15.06100
 21
124.69600
  0
LINE
  8
Gravur
 62
   255
 39
0.200
  6
CONTINUOUS
 10
15.06100
 20
124.69600
 30
 0
 11
15.13300
 21
124.68400
  0
LINE
  8
Gravur
 62
   255
 39
0.200
  6
CONTINUOUS
 10
15.13300
 20
124.68400
 30
 0
 11
15.20500
 21
124.68400
  0
LINE
  8
Gravur
 62
   255
 39
0.200
  6
CONTINUOUS
 10
15.20500
 20
124.68400
 30
 0
 11
15.27700
 21
124.69600
  0
LINE
  8
Gravur
 62
   255
 39
0.200
  6
CONTINUOUS
 10
15.27700
 20
124.69600
 30
 0
 11
15.34600
 21
124.71900
  0
LINE
  8
Gravur
 62
   255
 39
0.200
  6
CONTINUOUS
 10
15.34600
 20
124.71900
 30
 0
 11
15.41200
 21
124.75400
  0
LINE
  8
Gravur
 62
   255
 39
0.200
  6
CONTINUOUS
 10
15.41200
 20
124.75400
 30
 0
 11
15.47200
 21
124.80000
  0
LINE
  8
Gravur
 62
   255
 39
0.200
  6
CONTINUOUS
 10
15.47200
 20
124.80000
 30
 0
 11
15.52500
 21
124.85500
  0
LINE
  8
Gravur
 62
   255
 39
0.200
  6
CONTINUOUS
 10
15.52500
 20
124.85500
 30
 0
 11
15.57000
 21
124.91800
  0
LINE
  8
Gravur
 62
   255
 39
0.200
  6
CONTINUOUS
 10
15.57000
 20
124.91800
 30
 0
 11
15.60700
 21
124.98800
  0
LINE
  8
Gravur
 62
   255
 39
0.200
  6
CONTINUOUS
 10
15.60700
 20
124.98800
 30
 0
 11
15.63300
 21
125.06300
  0
LINE
  8
Gravur
 62
   255
 39
0.200
  6
CONTINUOUS
 10
15.63300
 20
125.06300
 30
 0
 11
15.65000
 21
125.14200
  0
LINE
  8
Gravur
 62
   255
 39
0.200
  6
CONTINUOUS
 10
15.65000
 20
125.14200
 30
 0
 11
15.65500
 21
125.22200
  0
LINE
  8
Gravur
 62
   255
 39
0.200
  6
CONTINUOUS
 10
15.65500
 20
125.22200
 30
 0
 11
15.65500
 21
125.22200
  0
LINE
  8
Gravur
 62
   255
 39
0.200
  6
CONTINUOUS
 10
15.65500
 20
125.22200
 30
 0
 11
15.65500
 21
126.54200
  0
LINE
  8
Gravur
 62
   255
 39
0.200
  6
CONTINUOUS
 10
15.65500
 20
126.54200
 30
 0
 11
15.65000
 21
126.62200
  0
LINE
  8
Gravur
 62
   255
 39
0.200
  6
CONTINUOUS
 10
15.65000
 20
126.62200
 30
 0
 11
15.63300
 21
126.70100
  0
LINE
  8
Gravur
 62
   255
 39
0.200
  6
CONTINUOUS
 10
15.63300
 20
126.70100
 30
 0
 11
15.60700
 21
126.77600
  0
LINE
  8
Gravur
 62
   255
 39
0.200
  6
CONTINUOUS
 10
15.60700
 20
126.77600
 30
 0
 11
15.57000
 21
126.84600
  0
LINE
  8
Gravur
 62
   255
 39
0.200
  6
CONTINUOUS
 10
15.57000
 20
126.84600
 30
 0
 11
15.52500
 21
126.90900
  0
LINE
  8
Gravur
 62
   255
 39
0.200
  6
CONTINUOUS
 10
15.52500
 20
126.90900
 30
 0
 11
15.47200
 21
126.96400
  0
LINE
  8
Gravur
 62
   255
 39
0.200
  6
CONTINUOUS
 10
15.47200
 20
126.96400
 30
 0
 11
15.41200
 21
127.01000
  0
LINE
  8
Gravur
 62
   255
 39
0.200
  6
CONTINUOUS
 10
15.41200
 20
127.01000
 30
 0
 11
15.34600
 21
127.04500
  0
LINE
  8
Gravur
 62
   255
 39
0.200
  6
CONTINUOUS
 10
15.34600
 20
127.04500
 30
 0
 11
15.27700
 21
127.06800
  0
LINE
  8
Gravur
 62
   255
 39
0.200
  6
CONTINUOUS
 10
15.27700
 20
127.06800
 30
 0
 11
15.20500
 21
127.08000
  0
LINE
  8
Gravur
 62
   255
 39
0.200
  6
CONTINUOUS
 10
15.20500
 20
127.08000
 30
 0
 11
15.13300
 21
127.08000
  0
LINE
  8
Gravur
 62
   255
 39
0.200
  6
CONTINUOUS
 10
15.13300
 20
127.08000
 30
 0
 11
15.06100
 21
127.06800
  0
LINE
  8
Gravur
 62
   255
 39
0.200
  6
CONTINUOUS
 10
15.06100
 20
127.06800
 30
 0
 11
14.99200
 21
127.04500
  0
LINE
  8
Gravur
 62
   255
 39
0.200
  6
CONTINUOUS
 10
14.99200
 20
127.04500
 30
 0
 11
14.92600
 21
127.01000
  0
LINE
  8
Gravur
 62
   255
 39
0.200
  6
CONTINUOUS
 10
14.92600
 20
127.01000
 30
 0
 11
14.86600
 21
126.96400
  0
LINE
  8
Gravur
 62
   255
 39
0.200
  6
CONTINUOUS
 10
14.86600
 20
126.96400
 30
 0
 11
14.81300
 21
126.90900
  0
LINE
  8
Gravur
 62
   255
 39
0.200
  6
CONTINUOUS
 10
14.81300
 20
126.90900
 30
 0
 11
14.76800
 21
126.84600
  0
LINE
  8
Gravur
 62
   255
 39
0.200
  6
CONTINUOUS
 10
14.76800
 20
126.84600
 30
 0
 11
14.73100
 21
126.77600
  0
LINE
  8
Gravur
 62
   255
 39
0.200
  6
CONTINUOUS
 10
14.73100
 20
126.77600
 30
 0
 11
14.70500
 21
126.70100
  0
LINE
  8
Gravur
 62
   255
 39
0.200
  6
CONTINUOUS
 10
14.70500
 20
126.70100
 30
 0
 11
14.68800
 21
126.62200
  0
LINE
  8
Gravur
 62
   255
 39
0.200
  6
CONTINUOUS
 10
14.68800
 20
126.62200
 30
 0
 11
14.68300
 21
126.54200
  0
LINE
  8
Gravur
 62
   255
 39
0.200
  6
CONTINUOUS
 10
14.68300
 20
126.54200
 30
 0
 11
14.68300
 21
126.54200
  0
LINE
  8
Gravur
 62
   255
 39
0.200
  6
CONTINUOUS
 10
14.68300
 20
126.54200
 30
 0
 11
14.68300
 21
125.22200
  0
LINE
  8
Gravur
 62
   255
 39
0.200
  6
CONTINUOUS
 10
15.41200
 20
150.83600
 30
 0
 11
14.71000
 21
149.03600
  0
LINE
  8
Gravur
 62
   255
 39
0.200
  6
CONTINUOUS
 10
14.71000
 20
149.03600
 30
 0
 11
15.62800
 21
149.03600
  0
LINE
  8
Gravur
 62
   255
 39
0.200
  6
CONTINUOUS
 10
15.41200
 20
149.63600
 30
 0
 11
15.41200
 21
148.43600
  0
LINE
  8
Gravur
 62
   255
 39
0.200
  6
CONTINUOUS
 10
20.75900
 20
137.76000
 30
 0
 11
23.25900
 21
137.76000
  0
LINE
  8
Gravur
 62
   255
 39
0.200
  6
CONTINUOUS
 10
22.00900
 20
139.01000
 30
 0
 11
22.00900
 21
136.51000
  0
LINE
  8
Gravur
 62
   255
 39
0.200
  6
CONTINUOUS
 10
30.14000
 20
129.62800
 30
 0
 11
25.89800
 21
133.87000
  0
LINE
  8
Gravur
 62
   255
 39
0.200
  6
CONTINUOUS
 10
25.89800
 20
133.87000
 30
 0
 11
25.89800
 21
133.87000
  0
LINE
  8
Gravur
 62
   255
 39
0.200
  6
CONTINUOUS
 10
27.32200
 20
136.33600
 30
 0
 11
27.32200
 21
136.33600
  0
LINE
  8
Gravur
 62
   255
 39
0.200
  6
CONTINUOUS
 10
27.32200
 20
136.33600
 30
 0
 11
33.11600
 21
134.78300
  0
LINE
  8
Gravur
 62
   255
 39
0.200
  6
CONTINUOUS
 10
33.11600
 20
140.73600
 30
 0
 11
27.32200
 21
139.18300
  0
LINE
  8
Gravur
 62
   255
 39
0.200
  6
CONTINUOUS
 10
27.32200
 20
139.18300
 30
 0
 11
27.32200
 21
139.18300
  0
LINE
  8
Gravur
 62
   255
 39
0.200
  6
CONTINUOUS
 10
25.89800
 20
141.64900
 30
 0
 11
25.89800
 21
141.64900
  0
LINE
  8
Gravur
 62
   255
 39
0.200
  6
CONTINUOUS
 10
25.89800
 20
141.64900
 30
 0
 11
30.14000
 21
145.89100
  0
LINE
  8
Gravur
 62
   255
 39
0.200
  6
CONTINUOUS
 10
24.98500
 20
148.86700
 30
 0
 11
23.43200
 21
143.07300
  0
LINE
  8
Gravur
 62
   255
 39
0.200
  6
CONTINUOUS
 10
23.43200
 20
143.07300
 30
 0
 11
23.43200
 21
143.07300
  0
LINE
  8
Gravur
 62
   255
 39
0.200
  6
CONTINUOUS
 10
20.58500
 20
143.07300
 30
 0
 11
20.58500
 21
143.07300
  0
LINE
  8
Gravur
 62
   255
 39
0.200
  6
CONTINUOUS
 10
20.58500
 20
143.07300
 30
 0
 11
19.03200
 21
148.86700
  0
LINE
  8
Gravur
 62
   255
 39
0.200
  6
CONTINUOUS
 10
13.87700
 20
145.89100
 30
 0
 11
18.11900
 21
141.64900
  0
LINE
  8
Gravur
 62
   255
 39
0.200
  6
CONTINUOUS
 10
18.11900
 20
141.64900
 30
 0
 11
18.11900
 21
141.64900
  0
LINE
  8
Gravur
 62
   255
 39
0.200
  6
CONTINUOUS
 10
16.69600
 20
139.18300
 30
 0
 11
16.69600
 21
139.18300
  0
LINE
  8
Gravur
 62
   255
 39
0.200
  6
CONTINUOUS
 10
16.69600
 20
139.18300
 30
 0
 11
10.90100
 21
140.73600
  0
LINE
  8
Gravur
 62
   255
 39
0.200
  6
CONTINUOUS
 10
10.90100
 20
134.78300
 30
 0
 11
16.69600
 21
136.33600
  0
LINE
  8
Gravur
 62
   255
 39
0.200
  6
CONTINUOUS
 10
16.69600
 20
136.33600
 30
 0
 11
16.69600
 21
136.33600
  0
LINE
  8
Gravur
 62
   255
 39
0.200
  6
CONTINUOUS
 10
18.11900
 20
133.87000
 30
 0
 11
18.11900
 21
133.87000
  0
LINE
  8
Gravur
 62
   255
 39
0.200
  6
CONTINUOUS
 10
18.11900
 20
133.87000
 30
 0
 11
13.87700
 21
129.62800
  0
CIRCLE
  8
Kontur
 62
   7
 39
0.100
  6
CONTINUOUS
 10
11.91000
 20
23.32000
 30
 0
 40
4.75000
  0
CIRCLE
  8
Kontur
 62
   7
 39
0.100
  6
CONTINUOUS
 10
32.55000
 20
23.32000
 30
 0
 40
4.75000
  0
CIRCLE
  8
Kontur
 62
   7
 39
0.100
  6
CONTINUOUS
 10
38.10000
 20
6.35000
 30
 0
 40
2.75000
  0
CIRCLE
  8
Kontur
 62
   7
 39
0.100
  6
CONTINUOUS
 10
38.10000
 20
215.52000
 30
 0
 40
2.75000
  0
CIRCLE
  8
Kontur
 62
   7
 39
0.100
  6
CONTINUOUS
 10
6.35000
 20
215.52000
 30
 0
 40
2.75000
  0
CIRCLE
  8
Kontur
 62
   7
 39
0.100
  6
CONTINUOUS
 10
6.35000
 20
6.35000
 30
 0
 40
2.75000
  0
CIRCLE
  8
Kontur
 62
   7
 39
0.100
  6
CONTINUOUS
 10
11.91000
 20
45.25000
 30
 0
 40
4.75000
  0
CIRCLE
  8
Kontur
 62
   7
 39
0.100
  6
CONTINUOUS
 10
22.38900
 20
92.29100
 30
 0
 40
3.00000
  0
CIRCLE
  8
Kontur
 62
   7
 39
0.100
  6
CONTINUOUS
 10
21.77600
 20
199.08500
 30
 0
 40
5.00000
  0
CIRCLE
  8
Kontur
 62
   7
 39
0.100
  6
CONTINUOUS
 10
22.00800
 20
167.74600
 30
 0
 40
5.00000
  0
CIRCLE
  8
Kontur
 62
   7
 39
0.100
  6
CONTINUOUS
 10
22.00800
 20
137.74600
 30
 0
 40
5.00000
  0
LINE
  8
Kontur
 62
   7
 39
0.100
  6
CONTINUOUS
 10
-1.00000
 20
0.00000
 30
 0
 11
1.00000
 21
0.00000
  0
LINE
  8
Kontur
 62
   7
 39
0.100
  6
CONTINUOUS
 10
0.00000
 20
-1.00000
 30
 0
 11
0.00000
 21
1.00000
  0
LINE
  8
Kontur
 62
   7
 39
0.100
  6
CONTINUOUS
 10
10.91000
 20
23.32000
 30
 0
 11
12.91000
 21
23.32000
  0
LINE
  8
Kontur
 62
   7
 39
0.100
  6
CONTINUOUS
 10
11.91000
 20
22.32000
 30
 0
 11
11.91000
 21
24.32000
  0
LINE
  8
Kontur
 62
   7
 39
0.100
  6
CONTINUOUS
 10
31.55000
 20
23.32000
 30
 0
 11
33.55000
 21
23.32000
  0
LINE
  8
Kontur
 62
   7
 39
0.100
  6
CONTINUOUS
 10
32.55000
 20
22.32000
 30
 0
 11
32.55000
 21
24.32000
  0
LINE
  8
Kontur
 62
   7
 39
0.100
  6
CONTINUOUS
 10
21.23000
 20
7.84000
 30
 0
 11
23.23000
 21
7.84000
  0
LINE
  8
Kontur
 62
   7
 39
0.100
  6
CONTINUOUS
 10
22.23000
 20
6.84000
 30
 0
 11
22.23000
 21
8.84000
  0
LINE
  8
Kontur
 62
   7
 39
0.100
  6
CONTINUOUS
 10
37.10000
 20
6.35000
 30
 0
 11
39.10000
 21
6.35000
  0
LINE
  8
Kontur
 62
   7
 39
0.100
  6
CONTINUOUS
 10
38.10000
 20
5.35000
 30
 0
 11
38.10000
 21
7.35000
  0
LINE
  8
Kontur
 62
   7
 39
0.100
  6
CONTINUOUS
 10
37.10000
 20
215.52000
 30
 0
 11
39.10000
 21
215.52000
  0
LINE
  8
Kontur
 62
   7
 39
0.100
  6
CONTINUOUS
 10
38.10000
 20
214.52000
 30
 0
 11
38.10000
 21
216.52000
  0
LINE
  8
Kontur
 62
   7
 39
0.100
  6
CONTINUOUS
 10
5.35000
 20
215.52000
 30
 0
 11
7.35000
 21
215.52000
  0
LINE
  8
Kontur
 62
   7
 39
0.100
  6
CONTINUOUS
 10
6.35000
 20
214.52000
 30
 0
 11
6.35000
 21
216.52000
  0
LINE
  8
Kontur
 62
   7
 39
0.100
  6
CONTINUOUS
 10
5.35000
 20
6.35000
 30
 0
 11
7.35000
 21
6.35000
  0
LINE
  8
Kontur
 62
   7
 39
0.100
  6
CONTINUOUS
 10
6.35000
 20
5.35000
 30
 0
 11
6.35000
 21
7.35000
  0
LINE
  8
Kontur
 62
   7
 39
0.100
  6
CONTINUOUS
 10
31.55000
 20
33.64000
 30
 0
 11
33.55000
 21
33.64000
  0
LINE
  8
Kontur
 62
   7
 39
0.100
  6
CONTINUOUS
 10
32.55000
 20
32.64000
 30
 0
 11
32.55000
 21
34.64000
  0
LINE
  8
Kontur
 62
   7
 39
0.100
  6
CONTINUOUS
 10
10.91000
 20
45.25000
 30
 0
 11
12.91000
 21
45.25000
  0
LINE
  8
Kontur
 62
   7
 39
0.100
  6
CONTINUOUS
 10
11.91000
 20
44.25000
 30
 0
 11
11.91000
 21
46.25000
  0
LINE
  8
Kontur
 62
   7
 39
0.100
  6
CONTINUOUS
 10
21.38900
 20
92.29100
 30
 0
 11
23.38900
 21
92.29100
  0
LINE
  8
Kontur
 62
   7
 39
0.100
  6
CONTINUOUS
 10
22.38900
 20
91.29100
 30
 0
 11
22.38900
 21
93.29100
  0
LINE
  8
Kontur
 62
   7
 39
0.100
  6
CONTINUOUS
 10
20.35500
 20
99.97800
 30
 0
 11
22.35500
 21
99.97800
  0
LINE
  8
Kontur
 62
   7
 39
0.100
  6
CONTINUOUS
 10
21.35500
 20
98.97800
 30
 0
 11
21.35500
 21
100.97800
  0
LINE
  8
Kontur
 62
   7
 39
0.100
  6
CONTINUOUS
 10
17.01200
 20
84.79000
 30
 0
 11
19.01200
 21
84.79000
  0
LINE
  8
Kontur
 62
   7
 39
0.100
  6
CONTINUOUS
 10
18.01200
 20
83.79000
 30
 0
 11
18.01200
 21
85.79000
  0
LINE
  8
Kontur
 62
   7
 39
0.100
  6
CONTINUOUS
 10
10.91000
 20
33.64000
 30
 0
 11
12.91000
 21
33.64000
  0
LINE
  8
Kontur
 62
   7
 39
0.100
  6
CONTINUOUS
 10
11.91000
 20
32.64000
 30
 0
 11
11.91000
 21
34.64000
  0
LINE
  8
Kontur
 62
   7
 39
0.100
  6
CONTINUOUS
 10
10.91000
 20
55.57000
 30
 0
 11
12.91000
 21
55.57000
  0
LINE
  8
Kontur
 62
   7
 39
0.100
  6
CONTINUOUS
 10
11.91000
 20
54.57000
 30
 0
 11
11.91000
 21
56.57000
  0
LINE
  8
Kontur
 62
   7
 39
0.100
  6
CONTINUOUS
 10
21.20100
 20
91.56200
 30
 0
 11
23.20100
 21
91.56200
  0
LINE
  8
Kontur
 62
   7
 39
0.100
  6
CONTINUOUS
 10
22.20100
 20
90.56200
 30
 0
 11
22.20100
 21
92.56200
  0
LINE
  8
Kontur
 62
   7
 39
0.100
  6
CONTINUOUS
 10
21.03000
 20
199.87500
 30
 0
 11
23.03000
 21
199.87500
  0
LINE
  8
Kontur
 62
   7
 39
0.100
  6
CONTINUOUS
 10
22.03000
 20
198.87500
 30
 0
 11
22.03000
 21
200.87500
  0
LINE
  8
Kontur
 62
   7
 39
0.100
  6
CONTINUOUS
 10
9.13600
 20
205.82900
 30
 0
 11
11.13600
 21
205.82900
  0
LINE
  8
Kontur
 62
   7
 39
0.100
  6
CONTINUOUS
 10
10.13600
 20
204.82900
 30
 0
 11
10.13600
 21
206.82900
  0
LINE
  8
Kontur
 62
   7
 39
0.100
  6
CONTINUOUS
 10
21.03000
 20
213.35700
 30
 0
 11
23.03000
 21
213.35700
  0
LINE
  8
Kontur
 62
   7
 39
0.100
  6
CONTINUOUS
 10
22.03000
 20
212.35700
 30
 0
 11
22.03000
 21
214.35700
  0
LINE
  8
Kontur
 62
   7
 39
0.100
  6
CONTINUOUS
 10
20.77600
 20
199.08500
 30
 0
 11
22.77600
 21
199.08500
  0
LINE
  8
Kontur
 62
   7
 39
0.100
  6
CONTINUOUS
 10
21.77600
 20
198.08500
 30
 0
 11
21.77600
 21
200.08500
  0
LINE
  8
Kontur
 62
   7
 39
0.100
  6
CONTINUOUS
 10
27.65300
 20
187.22100
 30
 0
 11
29.65300
 21
187.22100
  0
LINE
  8
Kontur
 62
   7
 39
0.100
  6
CONTINUOUS
 10
28.65300
 20
186.22100
 30
 0
 11
28.65300
 21
188.22100
  0
LINE
  8
Kontur
 62
   7
 39
0.100
  6
CONTINUOUS
 10
32.45400
 20
192.36700
 30
 0
 11
34.45400
 21
192.36700
  0
LINE
  8
Kontur
 62
   7
 39
0.100
  6
CONTINUOUS
 10
33.45400
 20
191.36700
 30
 0
 11
33.45400
 21
193.36700
  0
LINE
  8
Kontur
 62
   7
 39
0.100
  6
CONTINUOUS
 10
34.25700
 20
199.09800
 30
 0
 11
36.25700
 21
199.09800
  0
LINE
  8
Kontur
 62
   7
 39
0.100
  6
CONTINUOUS
 10
35.25700
 20
198.09800
 30
 0
 11
35.25700
 21
200.09800
  0
LINE
  8
Kontur
 62
   7
 39
0.100
  6
CONTINUOUS
 10
32.45400
 20
205.82900
 30
 0
 11
34.45400
 21
205.82900
  0
LINE
  8
Kontur
 62
   7
 39
0.100
  6
CONTINUOUS
 10
33.45400
 20
204.82900
 30
 0
 11
33.45400
 21
206.82900
  0
LINE
  8
Kontur
 62
   7
 39
0.100
  6
CONTINUOUS
 10
27.65300
 20
210.97500
 30
 0
 11
29.65300
 21
210.97500
  0
LINE
  8
Kontur
 62
   7
 39
0.100
  6
CONTINUOUS
 10
28.65300
 20
209.97500
 30
 0
 11
28.65300
 21
211.97500
  0
LINE
  8
Kontur
 62
   7
 39
0.100
  6
CONTINUOUS
 10
7.33300
 20
199.09800
 30
 0
 11
9.33300
 21
199.09800
  0
LINE
  8
Kontur
 62
   7
 39
0.100
  6
CONTINUOUS
 10
8.33300
 20
198.09800
 30
 0
 11
8.33300
 21
200.09800
  0
LINE
  8
Kontur
 62
   7
 39
0.100
  6
CONTINUOUS
 10
9.13600
 20
192.36700
 30
 0
 11
11.13600
 21
192.36700
  0
LINE
  8
Kontur
 62
   7
 39
0.100
  6
CONTINUOUS
 10
10.13600
 20
191.36700
 30
 0
 11
10.13600
 21
193.36700
  0
LINE
  8
Kontur
 62
   7
 39
0.100
  6
CONTINUOUS
 10
13.93700
 20
187.22100
 30
 0
 11
15.93700
 21
187.22100
  0
LINE
  8
Kontur
 62
   7
 39
0.100
  6
CONTINUOUS
 10
14.93700
 20
186.22100
 30
 0
 11
14.93700
 21
188.22100
  0
LINE
  8
Kontur
 62
   7
 39
0.100
  6
CONTINUOUS
 10
13.93700
 20
210.97500
 30
 0
 11
15.93700
 21
210.97500
  0
LINE
  8
Kontur
 62
   7
 39
0.100
  6
CONTINUOUS
 10
14.93700
 20
209.97500
 30
 0
 11
14.93700
 21
211.97500
  0
LINE
  8
Kontur
 62
   7
 39
0.100
  6
CONTINUOUS
 10
21.03000
 20
200.58600
 30
 0
 11
23.03000
 21
200.58600
  0
LINE
  8
Kontur
 62
   7
 39
0.100
  6
CONTINUOUS
 10
22.03000
 20
199.58600
 30
 0
 11
22.03000
 21
201.58600
  0
LINE
  8
Kontur
 62
   7
 39
0.100
  6
CONTINUOUS
 10
21.00800
 20
168.53600
 30
 0
 11
23.00800
 21
168.53600
  0
LINE
  8
Kontur
 62
   7
 39
0.100
  6
CONTINUOUS
 10
22.00800
 20
167.53600
 30
 0
 11
22.00800
 21
169.53600
  0
LINE
  8
Kontur
 62
   7
 39
0.100
  6
CONTINUOUS
 10
9.36800
 20
174.49000
 30
 0
 11
11.36800
 21
174.49000
  0
LINE
  8
Kontur
 62
   7
 39
0.100
  6
CONTINUOUS
 10
10.36800
 20
173.49000
 30
 0
 11
10.36800
 21
175.49000
  0
LINE
  8
Kontur
 62
   7
 39
0.100
  6
CONTINUOUS
 10
21.00800
 20
182.01800
 30
 0
 11
23.00800
 21
182.01800
  0
LINE
  8
Kontur
 62
   7
 39
0.100
  6
CONTINUOUS
 10
22.00800
 20
181.01800
 30
 0
 11
22.00800
 21
183.01800
  0
LINE
  8
Kontur
 62
   7
 39
0.100
  6
CONTINUOUS
 10
21.00800
 20
167.74600
 30
 0
 11
23.00800
 21
167.74600
  0
LINE
  8
Kontur
 62
   7
 39
0.100
  6
CONTINUOUS
 10
22.00800
 20
166.74600
 30
 0
 11
22.00800
 21
168.74600
  0
LINE
  8
Kontur
 62
   7
 39
0.100
  6
CONTINUOUS
 10
27.88500
 20
155.88200
 30
 0
 11
29.88500
 21
155.88200
  0
LINE
  8
Kontur
 62
   7
 39
0.100
  6
CONTINUOUS
 10
28.88500
 20
154.88200
 30
 0
 11
28.88500
 21
156.88200
  0
LINE
  8
Kontur
 62
   7
 39
0.100
  6
CONTINUOUS
 10
32.68600
 20
161.02800
 30
 0
 11
34.68600
 21
161.02800
  0
LINE
  8
Kontur
 62
   7
 39
0.100
  6
CONTINUOUS
 10
33.68600
 20
160.02800
 30
 0
 11
33.68600
 21
162.02800
  0
LINE
  8
Kontur
 62
   7
 39
0.100
  6
CONTINUOUS
 10
34.48900
 20
167.75900
 30
 0
 11
36.48900
 21
167.75900
  0
LINE
  8
Kontur
 62
   7
 39
0.100
  6
CONTINUOUS
 10
35.48900
 20
166.75900
 30
 0
 11
35.48900
 21
168.75900
  0
LINE
  8
Kontur
 62
   7
 39
0.100
  6
CONTINUOUS
 10
32.68600
 20
174.49000
 30
 0
 11
34.68600
 21
174.49000
  0
LINE
  8
Kontur
 62
   7
 39
0.100
  6
CONTINUOUS
 10
33.68600
 20
173.49000
 30
 0
 11
33.68600
 21
175.49000
  0
LINE
  8
Kontur
 62
   7
 39
0.100
  6
CONTINUOUS
 10
27.88500
 20
179.63600
 30
 0
 11
29.88500
 21
179.63600
  0
LINE
  8
Kontur
 62
   7
 39
0.100
  6
CONTINUOUS
 10
28.88500
 20
178.63600
 30
 0
 11
28.88500
 21
180.63600
  0
LINE
  8
Kontur
 62
   7
 39
0.100
  6
CONTINUOUS
 10
7.56500
 20
167.75900
 30
 0
 11
9.56500
 21
167.75900
  0
LINE
  8
Kontur
 62
   7
 39
0.100
  6
CONTINUOUS
 10
8.56500
 20
166.75900
 30
 0
 11
8.56500
 21
168.75900
  0
LINE
  8
Kontur
 62
   7
 39
0.100
  6
CONTINUOUS
 10
9.36800
 20
161.02800
 30
 0
 11
11.36800
 21
161.02800
  0
LINE
  8
Kontur
 62
   7
 39
0.100
  6
CONTINUOUS
 10
10.36800
 20
160.02800
 30
 0
 11
10.36800
 21
162.02800
  0
LINE
  8
Kontur
 62
   7
 39
0.100
  6
CONTINUOUS
 10
14.16900
 20
155.88200
 30
 0
 11
16.16900
 21
155.88200
  0
LINE
  8
Kontur
 62
   7
 39
0.100
  6
CONTINUOUS
 10
15.16900
 20
154.88200
 30
 0
 11
15.16900
 21
156.88200
  0
LINE
  8
Kontur
 62
   7
 39
0.100
  6
CONTINUOUS
 10
14.16900
 20
179.63600
 30
 0
 11
16.16900
 21
179.63600
  0
LINE
  8
Kontur
 62
   7
 39
0.100
  6
CONTINUOUS
 10
15.16900
 20
178.63600
 30
 0
 11
15.16900
 21
180.63600
  0
LINE
  8
Kontur
 62
   7
 39
0.100
  6
CONTINUOUS
 10
21.00800
 20
169.24700
 30
 0
 11
23.00800
 21
169.24700
  0
LINE
  8
Kontur
 62
   7
 39
0.100
  6
CONTINUOUS
 10
22.00800
 20
168.24700
 30
 0
 11
22.00800
 21
170.24700
  0
LINE
  8
Kontur
 62
   7
 39
0.100
  6
CONTINUOUS
 10
21.00800
 20
138.53600
 30
 0
 11
23.00800
 21
138.53600
  0
LINE
  8
Kontur
 62
   7
 39
0.100
  6
CONTINUOUS
 10
22.00800
 20
137.53600
 30
 0
 11
22.00800
 21
139.53600
  0
LINE
  8
Kontur
 62
   7
 39
0.100
  6
CONTINUOUS
 10
9.36800
 20
144.49000
 30
 0
 11
11.36800
 21
144.49000
  0
LINE
  8
Kontur
 62
   7
 39
0.100
  6
CONTINUOUS
 10
10.36800
 20
143.49000
 30
 0
 11
10.36800
 21
145.49000
  0
LINE
  8
Kontur
 62
   7
 39
0.100
  6
CONTINUOUS
 10
21.00800
 20
152.01800
 30
 0
 11
23.00800
 21
152.01800
  0
LINE
  8
Kontur
 62
   7
 39
0.100
  6
CONTINUOUS
 10
22.00800
 20
151.01800
 30
 0
 11
22.00800
 21
153.01800
  0
LINE
  8
Kontur
 62
   7
 39
0.100
  6
CONTINUOUS
 10
21.00800
 20
137.74600
 30
 0
 11
23.00800
 21
137.74600
  0
LINE
  8
Kontur
 62
   7
 39
0.100
  6
CONTINUOUS
 10
22.00800
 20
136.74600
 30
 0
 11
22.00800
 21
138.74600
  0
LINE
  8
Kontur
 62
   7
 39
0.100
  6
CONTINUOUS
 10
27.88500
 20
125.88200
 30
 0
 11
29.88500
 21
125.88200
  0
LINE
  8
Kontur
 62
   7
 39
0.100
  6
CONTINUOUS
 10
28.88500
 20
124.88200
 30
 0
 11
28.88500
 21
126.88200
  0
LINE
  8
Kontur
 62
   7
 39
0.100
  6
CONTINUOUS
 10
32.68600
 20
131.02800
 30
 0
 11
34.68600
 21
131.02800
  0
LINE
  8
Kontur
 62
   7
 39
0.100
  6
CONTINUOUS
 10
33.68600
 20
130.02800
 30
 0
 11
33.68600
 21
132.02800
  0
LINE
  8
Kontur
 62
   7
 39
0.100
  6
CONTINUOUS
 10
34.48900
 20
137.75900
 30
 0
 11
36.48900
 21
137.75900
  0
LINE
  8
Kontur
 62
   7
 39
0.100
  6
CONTINUOUS
 10
35.48900
 20
136.75900
 30
 0
 11
35.48900
 21
138.75900
  0
LINE
  8
Kontur
 62
   7
 39
0.100
  6
CONTINUOUS
 10
32.68600
 20
144.49000
 30
 0
 11
34.68600
 21
144.49000
  0
LINE
  8
Kontur
 62
   7
 39
0.100
  6
CONTINUOUS
 10
33.68600
 20
143.49000
 30
 0
 11
33.68600
 21
145.49000
  0
LINE
  8
Kontur
 62
   7
 39
0.100
  6
CONTINUOUS
 10
27.88500
 20
149.63600
 30
 0
 11
29.88500
 21
149.63600
  0
LINE
  8
Kontur
 62
   7
 39
0.100
  6
CONTINUOUS
 10
28.88500
 20
148.63600
 30
 0
 11
28.88500
 21
150.63600
  0
LINE
  8
Kontur
 62
   7
 39
0.100
  6
CONTINUOUS
 10
7.56500
 20
137.75900
 30
 0
 11
9.56500
 21
137.75900
  0
LINE
  8
Kontur
 62
   7
 39
0.100
  6
CONTINUOUS
 10
8.56500
 20
136.75900
 30
 0
 11
8.56500
 21
138.75900
  0
LINE
  8
Kontur
 62
   7
 39
0.100
  6
CONTINUOUS
 10
9.36800
 20
131.02800
 30
 0
 11
11.36800
 21
131.02800
  0
LINE
  8
Kontur
 62
   7
 39
0.100
  6
CONTINUOUS
 10
10.36800
 20
130.02800
 30
 0
 11
10.36800
 21
132.02800
  0
LINE
  8
Kontur
 62
   7
 39
0.100
  6
CONTINUOUS
 10
14.16900
 20
125.88200
 30
 0
 11
16.16900
 21
125.88200
  0
LINE
  8
Kontur
 62
   7
 39
0.100
  6
CONTINUOUS
 10
15.16900
 20
124.88200
 30
 0
 11
15.16900
 21
126.88200
  0
LINE
  8
Kontur
 62
   7
 39
0.100
  6
CONTINUOUS
 10
14.16900
 20
149.63600
 30
 0
 11
16.16900
 21
149.63600
  0
LINE
  8
Kontur
 62
   7
 39
0.100
  6
CONTINUOUS
 10
15.16900
 20
148.63600
 30
 0
 11
15.16900
 21
150.63600
  0
LINE
  8
Kontur
 62
   7
 39
0.100
  6
CONTINUOUS
 10
21.00800
 20
139.24700
 30
 0
 11
23.00800
 21
139.24700
  0
LINE
  8
Kontur
 62
   7
 39
0.100
  6
CONTINUOUS
 10
22.00800
 20
138.24700
 30
 0
 11
22.00800
 21
140.24700
  0
ENDSEC
  0
EOF
